Theme Music

America Tabs



More from Theme Music

Theme Music Tabs



E-----------------------------------------------------------------------------0--
B-------------------------------------0----------------------------3--23-----
G-0--0-----0--0-------------0--2-----0-----0--0------00-----------------2
D-------2-2------0-0--2--3-----------------------2-2--------00---------------
A----------------------------------------------------------------------------------
E----------------------------------------------------------------------------------

E---------0---0-------------------------------------------------------------
B-3--------------3--1--3--0-0--1--3--0--------1----1--1------1--1-----
G----0-------------------------------------2--0-------------2-2-------0-0
D----------------------------------------------------------------------------
A----------------------------------------------------------------------------
E-----------------------------------------------------------------------------

E-------------------
B--------1---3---1



Get this song at amazon.com      Ebay     Ringtones Ringtones  


Learn to play: Songwriting, Piano, Harmonica, Guitar

Related Theme Music Tabs

Pikmin Theme tabs
Finger Tap Practice tabs
Harry Potter Theme Song tabs
Norwgian Nathional Anthem tabs
Opening Theme To Terminator tabs
Final Fantasy 9 Theme tabs
Kakariko Village tabs
Babar - Retaxous Chant tabs
George Of The Jungle tabs
Die Hard Theme tabs
Mash tabs
O Canada tabs
Arabian Tune tabs
Gladiator Song tabs
Final Fantasy 9 - Vamo Allo Flamenco tabs
Awsome Blues Song tabs
Power Rangers Riff tabs
Back To The Future tabs
Family Guy tabs
Blues Song Ender tabs


Guitar Tabs









All tabs are property and copyright of their owners. All tabs provided for educational purposes only. Privacy Policy, DMCA