Theme Music

Aladdin Tabs



More from Theme Music

Theme Music Tabs

tabs-database.com[http://www.tabs-database.com.com/]




very easy please rate







Aladdin Theme song



e|--------------------------------------------------------------------

B|-3-1-4-3-----3-1-4-3--3-1--1-0-3-1--1-----------1---3-1-4-3---3-1-4-

G|---------3-----------3-------------2--3-2-3-0-3--3---------3--------

D|-----------3--------------------------------------3---------3-------

A|--------------------------------------------------------------------

E|--------------------------------------------------------------------



e|---------------------------------3-1---3-1-----------1-5-3-1-5-6-1--

B|-3--3-1-1-0-3-1-1---------1-3-3-4---3-4---1-4-3-3-3-4---------------

G|--3------------2-3-2-3-0-3-3--------------------------------3-------

D|--------------------------------------------------------------------

A|--------------------------------------------------------------------

E|--------------------------------------------------------------------



e|--------------------------------------------------------------------

B|--3-1-1-1-4-3-------------------------------------------------------

G|-3---3-------3-2-3--------------------------------------------------

D|--------------------------------------------------------------------

A|--------------------------------------------------------------------

E---------------------------------------------------------------------
Added by tabs-database.com and our distinguished partners
Get this song at amazon.com      Ebay     Ringtones Ringtones  


Learn to play: Songwriting, Piano, Harmonica, Guitar

Related Theme Music Tabs

Cool Beach Song tabs
Coca-cola Theme tabs
Power Rangers Riff tabs
Boy Meets World Theme Song tabs
Philippine National Anthem tabs
Cool Depressing Riff tabs
Greensleeves tabs
Bill Nye The Science Guy tabs
Futurama Theme tabs
Death Song tabs
Sailors Hornpipe tabs
Avalanche Valley Theme tabs
Happy Bday tabs
Bell Chime tabs
Dominos Theme tabs
Mxc Theme Song tabs
Friends Theme tabs
Misc Riff tabs
Meteor Tune tabs
Hun Cunz Buz tabs


Guitar Tabs









All tabs are property and copyright of their owners. All tabs provided for educational purposes only. Privacy Policy, DMCA