Theme Music

Aladdin Theme Tabs



More from Theme Music

Theme Music Tabs

tabs-database.com[http://www.tabs-database.com.com/]
Walt Disney`s "Alladin" Theme

Tuning: 1 whole step down

Intro

D|---------2---1--1-1-1-----|

A|-0-0-2-3--------------3-2-|

F|--------------------------|

C|--------------------------|

G|--------------------------|

D|--------------------------|



D|-2---1--1-1-1-----2--5-2-0-2--|

A|--------------3-2-------------|

F|------------------------------|

C|------------------------------|

G|------------------------------|

D|------------------------------|



D|-2-0---------|

A|-----3-2-----|

F|---------4---|

C|-------------|

G|-------------|

D|-------------|
Added by tabs-database.com and our distinguished partners
Get this song at amazon.com      Ebay     Ringtones Ringtones  


Learn to play: Songwriting, Piano, Harmonica, Guitar

Related Theme Music Tabs

King Of The Hill Theme tabs
Sanford And Son tabs
Seseme Street tabs
Hockey Night In Canada Theme tabs
Nintendo Super Mario tabs
Mc Gyver tabs
Happy Happy Joy Joy tabs
Beavis And Butthead Theme tabs
Pikmin Theme tabs
Sesame Street tabs
Earthbound Character Naming tabs
Duke Nukem Theme tabs
Away In A Manger tabs
Dsb Harry tabs
Mash tabs
National Antheme tabs
Pink Panther tabs
Ford Truck Song tabs
Mario Theme Song tabs
Frosty The Snowman tabs


Guitar Tabs









All tabs are property and copyright of their owners. All tabs provided for educational purposes only. Privacy Policy, DMCA