Theme Music

3rd Rock From The Sun Theme Tabs



More from Theme Music

Theme Music Tabs

tabs-database.com[http://www.tabs-database.com.com/]
#----------------------------------PLEASE NOTE--------------------------------#

#This file is the author's own work and represents their interpretation of the#

#song. You may only use this file for private study, scholarship, or research.#

#-----------------------------------------------------------------------------#

#-- File created with Instab - http://www.pconline.com/~smcarey/instab.html --#

#-----------------------------------------------------------------------------#



Author/Artist: 3rd Rock From The Sun

Title: Main Theme

Transcribed by: Robert Karlsson

Email: webmaster at tabs-database.com.com



-------|-5-5-5-5-|-5-------|---------|----5--5-|----5--5-|----5--5-|----5--5--

-----5-|-5-5-5-5-|-5-------|---------|----5--5-|----5--5-|----5--5-|----5--5--

-5-6---|---------|---7-5---|---------|----6--6-|----6--6-|----6--6-|----6--7--

-------|---------|-------7-|---------|----7--7-|----7--7-|----7--7-|----7--7--

-------|---------|---------|---------|----7--7-|----7--7-|----7--7-|----7--7--

-------|---------|---------|---------|/5--5--5-|/5--5--5-|/5--5--5-|/5--5--5--





-|---------|-----2-3-|-----2---|--------x|---------|---------|---------|------

-|-2---3---|-5-------|---------|-5---3-5x|---------|---------|-2---3---|-5----

-|---------|---------|---------|--------x|---------|---------|---------|------

-|---------|---------|---------|--------x|---------|---------|---------|------

-|---------|---------|---------|--------x|---------|---------|---------|------

-|---------|---------|---------|--------x|---------|---------|---------|------

x=Tremolo



-2-3-|-----2---|---------|---------|-6---5---|---------|---------|---------|--

-----|---------|---------|---------|---------|-6---5---|---------|---------|--

-----|---------|---------|---------|---------|---------|-6---5---|---------|--

-----|---------|---------|---------|---------|---------|---------|-6---5---|--

-----|---------|---------|---------|---------|---------|---------|---------|--

-----|---------|---------|---------|---------|---------|---------|---------|--





---------|---------|---------|---------|-5-5-5-5-|-5-------|---------|-3x-----

---------|---------|---------|-------5-|-5-5-5-5-|-5-------|---------|-2x-----

---------|---------|---------|---5-6---|---------|---7-5---|---------|-0x-----

---------|---------|---------|---------|---------|-------7-|---------|-2x-----

---------|---------|---------|---------|---------|---------|---------|-0x-----

---------|---------|---------|---------|---------|---------|---------|--------

x=Tremolo
Added by tabs-database.com and our distinguished partners
Get this song at amazon.com      Ebay     Ringtones Ringtones  


Learn to play: Songwriting, Piano, Harmonica, Guitar

Related Theme Music Tabs

Andy Griffith Show tabs
Elmo Song tabs
National Anthem tabs
Eastenders Theme tabs
Halo 2 Theme tabs
Sonic The Hedgehog Boss Theme tabs
Blues Song Ender tabs
Max Payne 2 Main Theme tabs
Holloween Theme tabs
Oompa Loompa Song tabs
Mc Gyver tabs
Sailors Hornpipe tabs
Halo 2 Theme Song tabs
Jingle Bells tabs
Boosters Tower tabs
Drunk Sailor tabs
Ned's Declassified School Survival Guide Theme tabs
Exorcist Theme tabs
Pink Panther tabs
Base Ball Theme tabs


Guitar Tabs









All tabs are property and copyright of their owners. All tabs provided for educational purposes only. Privacy Policy, DMCA