Theme Music

007 Theme Tabs



More from Theme Music

Theme Music Tabs

tabs-database.com[http://www.tabs-database.com.com/]
e-------------------------------------------------------------------

b--------------------------------------------------------------------

g--------------------------------------------------------------------

d-------------------------------------------------------------------- x4

a-----------2--3--4--3-----------------------------------------------

E---------0--0--0--0--------------------------------------------------



Strum the next part. Strum pattern: down, down, up, down, down, up, down

e----------------------------------------------------------------------

b----------------------------------------------------------------------

g----------------------------------------------------------------------

d---------------------------------------------------------------------- x4

a---------2-------3-------4-------3------------------------------------

E---------0-------0-------0-------0------------------------------------



e----------------------------------------------------------------------

b---------------------------------------------------------------------

g----------------------------------------------------------------------

d--------------------------------------------------------------------- x2

a-------0-3-11-10-3-6-7-3-2-------------------------------------------

E---------------------------0-4-5-------------------------------------



Go back to the strumming part.

Instead of doing the strumming part you can also a bridge like this:



e----------------------------------------------------------------------

b---------------------------------------------------------------------

g----------------------------------------------------------------------

d---------------------------------------------------------------------

a----0-0-0-0-2-0-2-3-3-3-2-0-2-0-0-0-2-0-2-3-3-3-2-0-2----------------

E--------------------------------------------------------------------



Please Rate This
Added by tabs-database.com and our distinguished partners
Get this song at amazon.com      Ebay     Ringtones Ringtones  


Learn to play: Songwriting, Piano, Harmonica, Guitar

Related Theme Music Tabs

French National Anthem tabs
Japanese Music (i Think) tabs
Blues Riff tabs
Old Man Six Flags tabs
Heavy Metal Jingle Bells tabs
Misc Riff tabs
China Man tabs
Flinstones Theme tabs
I Bet You Will tabs
Can-Can tabs
Pikmin Theme tabs
Oompa Lumpa tabs
King Of The Hill Theme Song tabs
Twinkle Twinkle tabs
Inu-yasha tabs
Happy Birthday With A Rock Twist tabs
Here Comes The Bride tabs
Dueling Banjos tabs
Amazing Grace tabs
Fa La La La La tabs


Guitar Tabs









All tabs are property and copyright of their owners. All tabs provided for educational purposes only. Privacy Policy, DMCA