The White Stripes

The White Stripes - A Boys Best Friend guitar tab

White Stripes: De Stijl

A Boys Best Friend

This sounds like what Jack plays. It's probably not exact, but it'll work.

Intro and Verse:

E-----0-----0-----0--------------------------

B-----0-----0-----0--------------------------

G--------1-----1--------1/6-----6/8--8--8/1--

D--------2-----2--------2/7--7--7/9-----9/2--

A--2-----2-----2-----2--2/7-----7/9-----9/2--

E--------------------------------------------

I just don't fit in this place

Their thoughts cast me out of here

Their home has run out of space

My minds already out of here

Bridge:

E-----------------------------

B-----------------------------

G--4--4--4--4/6--6--6/8--8/1--

D--5--5--5--5/7--7--7/9--9/2--

A--5--5--5--5/7--7--7/9--9/2--

E--3--3--3--3/5--5--5/7--7/0--

Won't you come along dear

Won't you come along

Verse:

Words that are spoke alone

Phrases you will never hear

Empty rooms and a telephone

That I will never use, never fear

Bridge:

I am all alone dear

I am all alone

Then:

E-----0---------0---------------------------------------

B-----0---------0---------------------------------------

G--1----------------------1/6--6--5/8-8-8-8-8--4/8-8-8-8

D--2----------------------2/7--7--5/9-9-9-9-9--5/9-9-9-9

A--2----------------------2/7--7--5/9-9-9-9-9--5/9-9-9-9

E--------0-0-0-----0-0-0--------------------------------

Verse:

My dogs come sit next too me

A pack of dogs and cigarettes

My only frinds speak no words to me

But they look at me and they don't forget

That a boy's best friend

Is his mother or whatever has become his pet

Tabbed by

Dustin Tobias

Get this song at:  amazon.com sheetmusicplus.com

Share your thoughts

0 Comments found