The Ventures

The Ventures - Yozora No Hashi (Live) guitar tab

Yozora No Hashi(live)

by the Ventures

transcribed by Kevin Gardner code@wam.umd.edu http://www.wam.umd.edu/~code

tab ledgend

~=apregiate

=slide

h=hammer on

p=pull off

b=bend 1/2 step

B=bend full step

song arrangement:

intro

main theme

main theme

theme #2

main theme

riff A

main theme octave varriation

main theme

theme #2

main theme

ending

Here are the eliments of the song

Intro

-12~--7~--7~----

-12~--8~--8~----

-12~--9~--9~----

----------------

----------------

--------------7-

main theme

-----------------------|--------------------|

-----------------------|--------------------|

-----------------------|--------------------|

-7B-7-5---------5-7/9--|-----5---5-7-5-7/9--|

--------7-7-5h7--------|-5h7---7------------|

-----------------------|--------------------|

-----------------------|--------------------|

-----------------------|--------------------|

-----------------------|--------

-7B-7-5---------5-7/9--|--------------------|

--------7-7-5h7--------|-9/7-5---5-4-2-0-2--|

-----------------------|-------7------------|

-0--0-0-0-0-0---0-0----|--------------------|

-----------------------|--------------------|

-----------------------|--------------------|

-7B-7-5---------5-7/9--|-----5---5-7-5-7/9--|

--------7-7-5h7--------|-5h7---7------------|

-----------------------|--------------------|

-0--0-0-0-0-0---0-0----|--------------------|

-----------------------|--------------------|

-7B-7-5---------5-7/9--|--------------------|

--------7-7-5h7--------|-9/7-5---5-4-2-0-2--|

-----------------------|-------7------------|

-----------------------|--------------------|

theme #2

Em D C Em

|----12-------12-----10-------10-|---8-----8----7------7-

|----------12--------------10----|-------8----------8----

|-12----12--------11----11-------|-9---9------9---9------

|--------------------------------|-----------------------

|---this-bar-is-played-twice-----|-----------------------

|--------------------------------|-----------------------

F#7 B

---6-----6-------7-

-------5-----------

-6---6-------/8----

-------------------

-------------------

-------------------

riff A-

12~--12~--12~----

12~--12~--12~----

12~--12~--12~----

-----------------

-----------------

--------------7--

main theme octave varriation

---------------------------------------------

----------------------------------------------

----------------------------------------------

----------------------------------------------

-0h2p0-----------------2---------------0-1-2--

-------3-0-0--0--0-0-3----0-0-0-3-0--3--------

---------------------------------------------------------

---------------------------------------------------------

------------------------------------------0-2-2Bp0-------

--------------------------------------0-2----------2-0-2-

-0h2p0--------------------------0-1-2--------------------

-------3-0-0--0--0-0--0-0-0-0-3--------------------------

ending-

12~--12~--12~----

12~--12~--12~----

12~--12~--12~----

-----------------

-----------------

---------------0-

Get this song at:  amazon.com sheetmusicplus.com

Share your thoughts

0 Comments found