The Ventures

The Ventures - Yellow Jacket guitar tab

"Yellow Jacket"

by The Ventures

From the LP "The Colourful Ventures"

transcribed by ???

submitted by: Satyrian@AOL.COM

/=slide up =slide down p=pull off h=hammer

Intro:

E---------------------------------

B---------------------------------

G---------------------------------

D--/7-7-7-7-/7-7-7-7-/7-7-7-7-- (DRUMS) CONTINUE...

A--/7-7-7-7-/7-7-7-7-/7-7-7-7--

E--/5-7-5-5-/5-5-5-5-/5-5-5-5--

MAIN RIFF:

E---------------------------------------------------------------

B---------------------------------------------------------------

G---------------------------------------------------------------

D---------------------------------------------------------------

A-------0-3-4-------0-3h4-3H4-0--------0-3-4--------0-3h4-3h4-0-

E--0-2----------0-2-----------------0-2----------0-2------------

E---------------------------------------------------------------

B---------------------------------------------------------------

G---------------------------------------------------------------

D---------------------------------------------------------------

A-------0-2-3-------0-2H3-2H3-0--------0-3-4---------0-3H4-3H4-0

E--0-2----------0-2----------------0-2---------0-2--------------

E--------------------------------------------------------

B--------------------------------------------------------

G--------------------------------------------------------

D-------------------------------------------2-2-2-2-2-2--

A------0-3-2------0-2H3-2H3-2-0-----0-0-0-0-0-0-0-0-0-0--

E--0-2--------0-2---------------2-0----------------------

FIRST TIME THROUGH, REPEAT

E-----------------------------------------------

B-----------------------------------------------

G-----------------------------------------------

D------0-3-4-----0-3P2P0-3P2P0-3P2P0------------

A--0-2-------0-2---------------------3P2P0-3-4--

E-----------------------------------------------

E-----------------------------------------------------------

B-----------------------------------------------------------

G-----------------------------------------------------------

D--------------------------------------------4-4-6----------

A------0-3P2P0-3P2P0-3P2P0-----1-2------2-/6-------6-----5--

E--0-2---------------------2-0------2-4--------------7-8----

E------------------------

B------------------------

G------------------------

D--------5-7(B)-7-5------ GO BACK TO MAIN RIFF

A--7-7-7------------7-5--

E------------------------

CHORUS:

E-------------------------------------------------------------------

B--10-10-10-108-8-8-8/10-10-10-108-8-8-8/10-10-10-10-10-10-10-

G--11-11-11-119-9-9-9/11-11-11-119-9-9-9/11-11-11-11-11-11-11-

D-------------------------------------------------------------------

A-------------------------------------------------------------------

E-------------------------------------------------------------------

E----------------------------------------5----------

B--10--108-10-8-8-8-----5---5---5-------5----------

G--11--119-11-9-9-9--7b-5---5---5-7-7b-----7P5---5-

D--------------------------7---7----------------7---

A---------------------------------------------------

E---------------------------------------------------

E-----------------------------------------------------------

B--------------------5-8b-8b-7-5----------------------------

G--------5-7b-7b-7-5-------------7-5-7b-7b-7-5--------------

D--7-7-7---------------------------------------7-5-7-7-7-7--

A-----------------------------------------------------------

E-----------------------------------------------------------

E----------------

B----------------

G----------------

D--7-7-7-7-7-7-7-

A--0-0-0-0-0-0-0-

E----------------

E---------------------------------------------------------------

B-----5-7-5----------5-7-5----------5-7-5----------5-7-5--------

G-----5-7-5----------5-7-5----------5-7-5----------5-7-5--------

D-----------7-5------------7-5------------7-5------------7-5----

A--0------------7-0------------7-0------------7-0------------7--

E---------------------------------------------------------------

E------------------------------------------------

B-----7---5-5-7-5----7---5-5-7-5----5-7-5--------

G-----7---5-5-7-5----7---5-5-7-5----5-7-5--------

D--0----7---------0----7------------------7-5----

A---------------------------------0-----------7--

E------------------------------------------------

E----------------5--5--5----------------------------------

B----5-7-5---5-7-5--5--5--7-5-----------------------------

G----5-7-5---5-7----------7-5--7b-7b--7-5-----------------

D----------7------------------------------7-5-------------

A--0------------------------------------------7--7--7--7--

E---------------------------------------------------------

E--------------------------------------------------

B--------------------------------------------------

G--------------------------------------------------

D----------------0-3-4------0-3h4-3h4-0------------

A--7-7-7-7-7-0-2--------0-2-----------------0-3-4--

E---------------------------------------0-2--------

E--------------------------------------------------

B--------------------------------------------------

G--------------------------------------------------

D--------------------------------------4-4-6-------

A------0-3h4-3h4-0-----0-3-2------2-/6-------6-----

E--0-2-------------0-2--------2-4--------------7-8-

E--------------------------

B--------------------------

G-------------------------- RETURN TO THE MAIN RIFF

D------------5-7b--7-5----- AND REPEAT WITH SOME SLIGHT VARIATIONS

A--5-7-7-7-7-----------7-5-

E------------------------

Get this song at:  amazon.com sheetmusicplus.com

Share your thoughts

0 Comments found