The Ventures

The Ventures - Wipeout guitar tab

From: "Communist Bob"

Subject: v/ventures/wipeout.tab

Date: Tue, 4 Jun 2002 13:14:09 -0500

This is a really fun song to play. It is really hi paced. Once you figure

the pattern out, you're set.

You can also have another guitarist play power chords. I listed the number

of the measure, and the key of the measure.

Wipeout!

The Ventures

HAHAHAHAHA! WIPEOUT!

1 2 3

|-----------------|-----------------|-----------------|

|-----------------|-----------------|-----------------|

|-----------------|-----------------|-----------------|

|-----------------|-----------------|-----------------|

|-----------------|-----------------|-----------------|

|-----------------|-----------------|-----------------|

For these first three measures, there is a drum intro, no guitars

4 E 5 A 6 A

|-----------------|-----------------|-----------------|

|-----------------|-----------------|-----------------|

|-----------------|-----------------|-----------------|

|------------5-6--|-7-7-7-5-----5-6-|-7-7-7-5-----5-6-|

|--7-7-7-7-7------|---------7-7-----|---------7-7-----|

|-----------------|-----------------|-----------------|

7 A 8 A 9 D

|-----------------|-----------------|-----------------|

|-----------------|-----------------|-----------------|

|-----------------|-------------5-6-|-7-7-7-5-----5-6-|

|-7-7-7-5-----5-6-|-7-7-7-5---7-----|---------7-7-----|

|---------7-7-----|---------7-------|-----------------|

|-----------------|-----------------|-----------------|

10 D 11 A 12 A

|-----------------|-----------------|-----------------|

|-----------------|-----------------|-----------------|

|-7-7-7-5---------|-----------------|-------------7-8-|

|---------7---5-6-|-7-7-7-5-----5-6-|-7-7-7-5---9-----|

|-----------7-----|---------7-7-----|---------7-------|

|-----------------|-----------------|-----------------|

13 E 14 D 15 A

|-----------------|-----------------|-----------------|

|-----------------|-----------------|-----------------|

|-9-9-9-7-----9---|-7-7-7-5---------|-----------------|

|---------9-9-----|---------7---5-6-|-7-7-7-5-----7-5-|

|-----------------|-----------7-----|---------7-7-----|

|-----------------|-----------------|-----------------|

16 E 17 A 18 (power chords during this drum solo)

|-----------------|-----------------||----------------|

|-----------------|-----------------||----------------|

|-----------------|-----------------||----------------|

|-------------5-6-|--7--------------||----------------|

|---7-7-7-7-7-----|--0--------------||----------------|

|-----------------|-----------------||----------------|

19 A 20 21 D

|-----------------|-----------------|-----------------|

|-----------------|-----------------|-----------------|

|-----------------|-----------------|-----------------|

|-----------------|-----------------|-7---------------|

|-7---------------|-----------------|-5---------------|

|-5---------------|-----------------|-----------------|

22 23 A 24

|-----------------|-----------------|-----------------|

|-----------------|-----------------|-----------------|

|-----------------|-----------------|-----------------|

|-----------------|-----------------|-----------------|

|-----------------|-7---------------|-----------------|

|-----------------|-5---------------|-----------------|

25 E 26 D 27 A

|-----------------|-----------------|-----------------|

|-----------------|-----------------|-----------------|

|-----------------|-----------------|-----------------|

|-9---------------|-7---------------|-----------------|

|-7---------------|-5---------------|-7---------------|

|-----------------|-----------------|-5---------------|

When you get to measure 27, repeat to the beginning(without drum intro) and

end on measure 18

This tab � Me, Communist_Bob 2002

Anything else � its original owner(s)

This is my work. If you rip it off, I will be forced to break your legs

with a socket wrench.

Direct flames, comments, questions, ETC to: Communist_bob@antisocial.com

Get this song at:  amazon.com sheetmusicplus.com

Share your thoughts

0 Comments found