The Ventures

The Ventures - Walk Dont Run guitar tab

#

Sorry, it didn't send the file like it was supposed to. I'll try again.

Play all vibrato's with the whammy bar.

Here is the first part.

||-----|---------|------------|-------------|---------|-----------

||-----|---------|-----1~~~-0-|-------------|---1-0---|-----------

||---2-|---------|-0-2--------|-2-----------|-0-2-0-2-|-0-----0-0-

||-2---|---0-2-3-|------------|-------0-2-3-|-------3-|-2-2p1-2-2~~~-|

||-----|-0-2-3-------|------------|---0-2-3-------|---------|--------|

||-----|-------------|------------|---------------|---------|--------|

----------|-------------|-------------||

----------|-------------|-------------||

----------|-----------1-|-1-1-1-1-1-1-||

0-2-3-2-0-|-2-0h2---0-2-|-2-2-2-2-2-2-||

----------|-3-----3-----|-------------||

----------|-------------|-------------||

Repeat and replace last measure with:

|---------------|

|---------------|

|---------------|

|---0h2p0---0---|

|-3-------3---3-|

|---------------|

Second part:

|--------------------|-------------|--------|---------------

|--------------------|-1-1-1-1-1-1-|-1-1----|-1-------------

|---------------0~~~-|-0-0-0-0-0-0-|-2-2~~~-|-2~~~-2--------

|---------0-2-3------|-------------|--------|--------3------

|---0-2-3------------|-------------|--------|----------3----

|-3------------------|-------------|--------|---------------

-----------------------|---------|--------------------------

------0-----0-----1----|---------|--------------------------

2-------1-----1---2~~~-|---------|--------------------------

--3-------2-----2------|---------|--------------------------

----3------------------|/7-5-3-2-|--------------------------

-----------------------|---------|--------------------------

Repeat the first part and end with this:

|---------|

|-1-3-3-1-|

|-0-4-4-0-|

|---5-5\2-|

|---------|

|---------|

Now repeat first and second parts and play final ending:

|---------8-----|

|-1-1-1-1-8-----|

|-0-0-2-2-9-----|

|-2-2-3-3/10~~~-|

|---------------|

|---------------|

Have fun!

Beavis

"Strange women lying in

ponds distributing swords

is no basis for a system

of government."

-Dennis

Get this song at:  amazon.com sheetmusicplus.com

Share your thoughts

0 Comments found