The Ventures

The Ventures - Sleepwalk guitar tab

"Sleep Walk"

as recored by The Ventures on the album, "Walk Don't Run"

Transcribed by Kevin Gardner transtrem@hotmail.com

h=hammer on

p=pull off

/=slide

Follow this chord progression untill futher notice

C Am F G

-----0-------------|-----0-------------

-------0-----------|-------0-----------

-0h2---------------|-0h2---------------

----------3-3-3--5-|----------3-3-3--5-

----------3-3-3--5-|----------3-3-3--5-

----------1-1-1--3-|----------1-1-1--3-

-8------1-3-4-3-1-|-8--------------1-3-4-3-1-|

---8-8--3-5-6-5-3-|---8h10-8h10-8--3-5-6-5-3-|

------------------|--------------------------|

------------------|--------------------------|

------------------|--------------------------|

------------------|--------------------------|

-3-0h3p0-------------------0-

---------1----1-1-5-5--5-5-1-

-----------2--2-2-4-4--4-4-0-

-----------------------------

-----------------------------

-----------------------------

-----0-------------

-------0-----------

-0h2---------------

----------3-3-3--5-

----------3-3-3--5-

----------1-1-1--3-

-8------1-3-4-3-1-|-8--------------1-3-4-3-1-|

---8-8--3-5-6-5-3-|---8h10-8h10-8--3-5-6-5-3-|

------------------|--------------------------|

------------------|--------------------------|

------------------|--------------------------|

------------------|--------------------------|

-3-0h3p0-------------------0-

---------1----1-1-5-5--5-5-1-

-----------2--2-2-4-4--4-4-0-

-----------------------------

-----------------------------

-----------------------------

chnage in chord pattern follow new chords

F C

----------|---------------

-1-1-1--1-|-1-1-1-1-1-1-1-

-2-2-2--0-|-0-3-3-2-2-0-0-

-3-3-3--2-|---------------

----------|---------------

----------|---------------

F Fm

----------------|---------------

-1-1--3-3/5-3-1-|-1-1-3-3/5-3-1-

-2-2--2-------2-|-1-1---------1-

----------------|---------------

----------------|---------------

----------------|---------------

C

------------------------

----------------------1-

-0--0-0-3---2-0-----0---

----------2-------2-----

----------------3-------

------------------------

F Fm

----------------|---------------

-1-1--3-3/5-3-1-|-1-1-3-3/5-3-1-

-2-2--2-------2-|-1-1---------1-

----------------|---------------

----------------|---------------

----------------|---------------

G Bb G7

-------------------1-

-------------------0-

--0-0-0--3-3--3-0--0-

-------------------0-

-------------------2-

-------------------3-

return to orginal chord pattern: C Am F G

-8------1-3-4-3-1-|-8--------------1-3-4-3-1-|

---8-8--3-5-6-5-3-|---8h10-8h10-8--3-5-6-5-3-|

------------------|--------------------------|

------------------|--------------------------|

------------------|--------------------------|

------------------|--------------------------|

-3-0h3p0-------------------0-

---------1----1-1-5-5--5-5-1-

-----------2--2-2-4-4--4-4-0-

-----------------------------

-----------------------------

-----------------------------

-----0-------------

-------0-----------

-0h2--------------- Reapeat and fade

----------3-3-3--5-

----------3-3-3--5-

----------1-1-1--3-

Get this song at:  amazon.com sheetmusicplus.com

Share your thoughts

0 Comments found