The Ventures

The Ventures - Secret Agent Man guitar tab

"Secret Agent Man"

as recorded by the Ventures on the LP "Play Guitar Vol.3"

transcribed by Kevin Gardner transtrem@hotmail.com

p=pull off

Diagram #1

---0---0---0---0---0--- ---0---0---0---0---0---

-0---1---1---2---1---1- -0---1---1---2---1---1-

----------------------- -----------------------

----------------------- -----------------------

----------------------- -----------------------

----------------------- -----------------------

Diagram#2

Em Am Em

-------------------------------

-------0-------------------0---

-----0---2--2-0-2--2p0---------

-2-2-------------------2-2---2-

-------------------------------

-------------------------------

Diagram #3

Em B7

------------------------

----------------3---4---

-----0-2--4-4-4---4---4-

-2-2--------------------

------------------------

------------------------

Diagram#4

Em Am

-----------------------------------------------------------

---3---5-5-5--3------------------------------------3-------

-4---4-----------4p2p0-4---0---2--2-0--2p0---0---4---4-4-2-

-----------------------------2-------------2---------------

-----------------------------------------------------------

-----------------------------------------------------------

-----------

-----------

-2p2-0-----

-------2-0-

-----------

-----------

Diagram#5

Em Am Em

-------------------------------

-------0-----------------------

-----0---2--2-0-2--2p0-----0---

-2-2-------------------2-2---2-

-------------------------------

-------------------------------

Diagram #6

Bm Em Bm Em

-----2---0- -----2---0-

-0-3---3--- -0-3---3---

----------- -----------

----------- -----------

----------- -----------

----------- -----------

Diagram#7

C Em

---------------------------------------------------

---------------------------------------------------

-4-2-0--2-2-0-2--2-0--4-4-2-0------------0-2-0-4-4-

------------------------------2-0----2-2-----------

---------------------------------------------------

---------------------------------------------------

Diagram#8

Bm Em

-----2---0-

-0-3---3---

-----------

-----------

-----------

-----------

Get this song at:  amazon.com sheetmusicplus.com

Share your thoughts

0 Comments found