The Ventures

The Ventures - Riders In The Sky guitar tab

"Ridders in the Sky"

by the Ventures

from the Album "Another Smash!!!"

transcribed by kevin gardner

transtrem@hotmail.com

TAB LEDGEND

/=slide

use a tremmelo effect for this song

|--------------------------------------|--------------------------------------|

|--------------------------------------|--------------------------------------|

|--------------------------------------|--------------------------------------|

|--------------------------------------|-----------------------0--2-2-2-----2-|

|----0-0-0---2--3-3-3---0--------------|----0-0-0---2--3-3-3--------------3---|

|-0------------------------3-3-3---0-3-|-0------------------------------------|

|------------------------------------|-------------------|---------------|

|------------------------------------|-------------------|---------------|

|------2-2---2-2---------------------|-------------------|---------------|

|-2-2-------------2-2---2-2-2-2------|-------------------|---------------|

|--------------------------------3-0-|-0-----------3-3-3-|-3--0-0----0--|

|------------------------------------|----1-1-1-1--------|----------3----|

Am

|-REPEAT-------|

|-FOUR---------|

|-TIMES--------|

|--------------|

|---7-7----7-7-|

|-5------0-----|

Am G Am C

|--------------------------------------|--------------------------------------|

|--------------------------------------|--------------------------------------|

|--------------------------------------|--------------------------------------|

|--------------------------------------|-----------------------0--2-2-2-----2-|

|----0-0-0---2--3-3-3---0--------------|----0-0-0---2--3-3-3--------------3---|

|-0------------------------3-3-3---0-3-|-0------------------------------------|

Am F Am

|------------------------------------|-------------------|---------------|

|------------------------------------|-------------------|---------------|

|------2-2---2-2---------------------|-------------------|---------------|

|-2-2-------------2-2---2-2-2-2------|-------------------|---------------|

|--------------------------------3-0-|-0-----------3-3-3-|-3--0-0----0--|

|------------------------------------|----1-1-1-1--------|----------3----|

Am C Am F Am

|-0-0-0--3---5-5-5-5--0------------------|

|-1-1-1--1---5-5-5-5--1------------------|

|-2-2-2--0---5-5-5-5--2------------------|

|-2-2-2--2---7-7-7-7--2------------------|

|-0-0-0--3------------0-----------3--3-0-|

|---------------------------3-1-1--------|

Am G Am C

|--------------------------------------|--------------------------------------|

|--------------------------------------|--------------------------------------|

|--------------------------------------|--------------------------------------|

|--------------------------------------|-----------------------0--2-2-2-----2-|

|----0-0-0---2--3-3-3---0--------------|----0-0-0---2--3-3-3--------------3---|

|-0------------------------3-3-3---0-3-|-0------------------------------------|

Am F Am

|------------------------------------|-------------------|---------------|

|------------------------------------|-------------------|---------------|

|------2-2---2-2---------------------|-------------------|---------------|

|-2-2-------------2-2---2-2-2-2------|-------------------|---------------|

|--------------------------------3-0-|-0-----------3-3-3-|-3--0-0----0--|

|------------------------------------|----1-1-1-1--------|----------3----|

(Violin Solo)

Cm Bb Cm Eb

|--------------------------------------|--------------------------------------|

|--------------------------------------|--------------------------------------|

|--------------------------------------|--------------------------------------|

|--------------------------------------|-----------------------3--5-5-5-----5-|

|----3-3-3---5--6-6-6---3--------------|----3-3-3---5--6-6-6--------------6---|

|-3------------------------6-6-6---3-6-|-3------------------------------------|

Cm G# Cm

|------------------------------------|-------------------|---------------|

|------------------------------------|-------------------|---------------|

|------5-5---5-5---------------------|-------------------|---------------|

|-5-5-------------5-5---5-5-5-5------|-------------------|---------------|

|--------------------------------6-3-|-3-----------6-6-6-|-6--3-3----3--|

|------------------------------------|----4-4-4-4--------|----------6----|

(Violin Solo)

Am C Am F Am

|-0-0-0--3---5-5-5-5--0------------------|

|-1-1-1--1---5-5-5-5--1------------------|

|-2-2-2--0---5-5-5-5--2------------------|

|-2-2-2--2---7-7-7-7--2------------------|

|-0-0-0--3------------0-----------3--3-0-|

|---------------------------3-1-1--------|

Am

|-REPEAT-------------------|

|-SEVERAL------------------|

|-TIMES-and-FADE-OUT-------|

|--------------------------|

|---7-7----7-7-------------|

|-5------0-----------------|

Get this song at:  amazon.com sheetmusicplus.com

Share your thoughts

0 Comments found