The Ventures

The Ventures - Raunchy guitar tab

"Raunchy"

by the Ventures

from the Album "Play Guitar with the Ventures"

transcribed by kevin gardner

transtrem@hotmail.com

This song was orginally recorded by Bill Justis in 1957 for Sun records.

The original song has a sax solo. The Ventures recored "Raunchy"

on their First Lp, "Walk Don't Run". The riff found on "Walk Don't Run"

is , belive it or not, simpler than the 'Play Guitar' recording.

The guitar solo is left out and also the chord solo has been

omitted in the 'Play Guitar' version.

h=hammer on

D

--------------------------------------

--------------------------------------

--------------------------------------

-----0-3h4-3h4-0--------0-3h4-3h4-0---

-0-3-------------3--0-3-------------3-

--------------------------------------

D

--------------------------------------

--------------------------------------

--------------------------------------

-----0-3h4-3h4-0--------0-3h4-3h4-0---

-0-3-------------3--0-3---------------

--------------------------------------

G

-10--------10--------10--------10--------10-------

----12--------12--------12--------12--------12----

-------12--------12--------12--------12--------12-

--------------------------------------------------

--------------------------------------------------

--------------------------------------------------

D

-10--------10--------10--------10--------10-------

----10--------10--------10--------10--------10----

-------11--------11--------11--------11--------11-

--------------------------------------------------

--------------------------------------------------

--------------------------------------------------

A

---9-------9------9-

-----10------10-----

-9-------9------9---

--------------------

--------------------

--------------------

G

--------------------

----12--------12----

-------12--------12-

-12--------12-------

--------------------

--------------------

D

--------------------

----10--------10----

-------11--------11-

-12--------12-------

--------------------

--------------------

Get this song at:  amazon.com sheetmusicplus.com

Share your thoughts

0 Comments found