The Ventures

The Ventures - Rap City guitar tab

"Rap City"

as played by the Ventures

from the Lp, "Walk Don't Run, Vol. 2"

transcribed by Kevin Gardner

transtrem@hotmail.com

* = bend down 1/2 step using bar

/ = slide down

------------------------------------|-------------

----play----------------------------|-play--------

--------this------------------------|-----this----

-------------twice------------------|-------twice-

------------------------------------|-------------

-3-3-3-3--2-2-2-2--1-1-1-1--0-0-0-0-|-3--2--1--0--

*

-0--0-3-0---0-2-0---------------------------

-0--------4--------1-3/5-0--1-0-------------

-2------------------------------2-0---0-----

-2----------------------------------4---4-2-

--------------------------------------------

--------------------------------------------

*

-0--0-3-7--3-2--3-5-3----------------------------------------------

-------------------------3-5------3----------------1-0-------------

-----------------------5------4-5----2-4-5--0-2-4------2-0---0-----

-----------------------------------------------------------4---4-2-

-------------------------------------------------------------------

-------------------------------------------------------------------

-------------------------------------------------------------------------------

-------------------------------------------------------------------------------

-------------0-0-0-0-0-0-------------------------------------------------------

---------2-2-------------2-2-1-1-1-1-1-1--2-4--2-2-2-2-2-2-2-2-------------0-2-

-2-2-2-2-------------------------------------------------------3-3-3-3---------

-------------------------------------------------------------------------------

-------------------------------------

-------------------------------------

-------------------------------------

-------------------------------------

-2-2-2-2-2-2-2-2--3-2-0--------------

------------------------3-2-0--3-2-0-

---------------------------------------------------------------

-----------------0-0-0-0-0-0-----------------------------------

-------------0-0-------------0---------0-0-2-2-0-0-0-0-0-0-0-0-

---------2-2-------------------4-4-4-4-------------------------

-2-2-2-2-------------------------------------------------------

---------------------------------------------------------------

----------------------------------------------

----------------------------------------------

----------------------------------------------

---0-2------0---------------------------------

-3------2-3----0-2-3----0-2--3-2-0------------

----------------------3------------3-2--3-2-0-

-7-8-7---------------------7-7----

-9-9-9---------------10-10-----10-

-9-9-9-----------9-9--------------

-------7-7-10-10------------------

----------------------------------

----------------------------------

-5-7-5-------------3-3-5-5-3-

-7-7-7---------3-3-----------

-7-7-7-----4-4---------------

-------5-5-------------------

-----------------------------

-----------------------------

------------------------------

-7-10-8-----------------------

-8-8--8-----------------------

--------------------2-2-4-4-2-

----------------2-2-----------

--------0-0-3-3---------------

-7----7---7---7-

---10---8---7---

----------------

----------------

----------------

----------------

Get this song at:  amazon.com sheetmusicplus.com

Share your thoughts

0 Comments found