The Ventures

The Ventures - Pipleline guitar tab

"Pipleline"

as recorded by the Ventures

on the lp "Play Guitar with The Ventures Vol. 2"

transcribed by kevin gardner

transtrem@hotmail.com

----------------------------------

-palm-mute------------------------

----------------------------------

----------------------------------

-14/13/12/11/10/9/8/7/6/5/4/3/2/1-

----------------------------------

-----------------

-----------------

-palm mute-------

-----------------

---2---2---2---2-

-0---3---0---3---

-----------------

-----------------

-palm mute-------

-----------------

---2---2---2---2-

-0---3---0---3---

--------------------------------------

--------------------------------------

--------------------------------------

---0-2-0-2-4-2-0-2--4-2-4-2-0-2-0-----

-2--------------------------------2---

--------------------------------------

-------------------------------------------

-------------------------------------------

---0-2-0-2-4-2-0-2--4-2-4-2-0-2-0----------

-2--------------------------------2--------

-------------------------------------------

-------------------------------------------

--------------------------

--------------------------

--------------------------

-4-4-4-4-4-4--5-5-5-5-5-5-

-2-2-2-2-2-2--3-3-3-3-3-3-

--------------------------

play twice

----------------------------

----------------------------

----------------------------

-4-4-4--4-4-4--4-4-4--4-4-4-

-2-0-2--0-2-0--2-0-2--0-2-2-

----------------------------

--------------------------------------

--------------------------------------

-2---2---2---2------------------------

-2---2---2---2------------------------

-0---0---0---0------------------------

---3---3---3--------------------------

----------------------------------

-palm-mute------------------------

----------------------------------

----------------------------------

-14/13/12/11/10/9/8/7/6/5/4/3/2/1-

----------------------------------

-----------------

-----------------

-palm mute-------

-----------------

---2---2---2---2-

-0---3---0---3---

-----------------

-----------------

-palm mute-------

-----------------

---2---2---2---2-

-0---3---0---3---

--------------------------------------

--------------------------------------

--------------------------------------

---0-2-0-2-4-2-0-2--4-2-4-2-0-2-0-----

-2--------------------------------2---

--------------------------------------

-------------------------------------------

-------------------------------------------

---0-2-0-2-4-2-0-2--4-2-4-2-0-2-0----------

-2--------------------------------2--------

-------------------------------------------

-------------------------------------------

--------------------------

--------------------------

--------------------------

-4-4-4-4-4-4--5-5-5-5-5-5-

-2-2-2-2-2-2--3-3-3-3-3-3-

--------------------------

play twice

----------------------------

----------------------------

----------------------------

-4-4-4--4-4-4--4-4-4--4-4-4-

-2-0-2--0-2-0--2-0-2--0-2-2-

----------------------------

Am G F G

---------------0--------------------------------------------------------------

-1-----------1---3-1-0----------0-3-1-0--------------1-0--0-----------0-3-1-0-

---2-2---2-2-----------0-0--0-0---------2----------2----2---0-0---0-0---------

------------------------------------------3-3--3-3----------------------------

------------------------------------------------------------------------------

------------------------------------------------------------------------------

Am G F E

---------------0--------------------------------------------

-1-----------1---3-1-0----------0-3-1-0--------------1-0----

---2-2---2-2-----------0-0--0-0---------2----------2----2-1-

------------------------------------------3-3--3-3----------

------------------------------------------------------------

------------------------------------------------------------

Get this song at:  amazon.com sheetmusicplus.com

Share your thoughts

0 Comments found