The Ventures

The Ventures - Perfidia guitar tab

"Perfidia"

as recorded by the Ventures on the lp "The Ventures"

transcribed by kevin gardner

transtrem@hotmail.com

--------------

--------------

--------------

--------------

-----0-0-2-2--

-3-3----------

C Em/B Am G

-8--8--8---7-7-7--5-5-5-5--3-3-3-

-8--8--8---8-8-8--5-5-5-5--3-3-3-

-9--9--9---7-7-7--5-5-5-5--4-4-4-

-10-10-10--9-9-9--7-7-7-7--5-5-5-

-10-10-10--7-7-7--7-7-7-7--5-5-5-

-8--8--8---7-7-7--5-5-5-5--3-3-3-

C Em/B Am G

-8--8--8---7-7-7--5-5-5-5--3-3-3-

-8--8--8---8-8-8--5-5-5-5--3-3-3-

-9--9--9---7-7-7--5-5-5-5--4-4-4-

-10-10-10--9-9-9--7-7-7-7--5-5-5-

-10-10-10--7-7-7--7-7-7-7--5-5-5-

-8--8--8---7-7-7--5-5-5-5--3-3-3-

Rythm guitar plays these chords

C Am F G

C Am F G

C Am F G Em

-----|-----------------|--------------------------------0-

-0-1-|-0-1-3-1-0-1-0---|-0-1-3-1-0-1-0---1--------------0-

-----|---------------2-|---------------2---2-0---0-2----0-

-----|-----------------|-----------------------3-----3--2-

-----|-----------------|--------------------------------2-

-----|-----------------|----------------------------------

G

--3-3-3-3-3-3-

--0-0-0-0-0-0-

--0-0-0-0-0-0-

--0-0-0-0-0-0-

--2-2-2-2-2-2-

--------------

Rythm guitar plays these chords

C Am F G

C Am F G

C Am F G

-----|-----------------|-------------------------------

-0-1-|-0-1-3-1-0-1-0---|-0-1-3-1-0-1-0---1-------------

-----|---------------2-|---------------2---2-0---0-2---

-----|-----------------|-----------------------3-----3-

-----|-----------------|-------------------------------

-----|-----------------|-------------------------------

C F C

-0--1--0--------

-1--1--1------1-

-0--2--0----0---

-2--3--2--2-----

-3--3--3--------

----------------

F E

---------------------------------------0-

--------------1-1-1-0-1-1-1-0-1-0-1-1--0-

------2-2-2-0-2-2-2-0-2-2-2-0-2-0-2-2--1-

-0-2--3-3-3-0--------------------------2-

---------------------------------------2-

-----------------------------------------

F E G

-0-0--0-0-0-0-0-0---0-0-0---0-0-0---0---0----0-|---------

-0-1--3-3-3-1-0-0---0-0-0---0-0-0---0---0----0-|---------

------------------2-------2-------2---2---2--1-|-0-------

-----------------------------------------------|---3-2-0-

-----------------------------------------------|---------

-----------------------------------------------|---------

Rythm guitar plays these chords

C Am F G

C Am F G

C Am F G

-----|-----------------|-------------------------------

-0-1-|-0-1-3-1-0-1-0---|-0-1-3-1-0-1-0---1-------------

-----|---------------2-|---------------2---2-0---0-2---

-----|-----------------|-----------------------3-----3-

-----|-----------------|-------------------------------

-----|-----------------|-------------------------------

C F C G C

-0--1--0--3-3--0-

-1--1--1--0-0--1-

-0--2--0--0-0--0-

-2--3--2--0-0--2-

-3--3--3--2-2--3-

----1--1--3-3----

DRUMZ

C Em/B Am G

-8--8--8---7-7-7--5-5-5-5--3-3-3-

-8--8--8---8-8-8--5-5-5-5--3-3-3-

-9--9--9---7-7-7--5-5-5-5--4-4-4-

-10-10-10--9-9-9--7-7-7-7--5-5-5-

-10-10-10--7-7-7--7-7-7-7--5-5-5-

-8--8--8---7-7-7--5-5-5-5--3-3-3-

D F#m/C# Bm A

-10-10-10-9--9--9--7-7-7--5-5-5-

-10-10-10-10-10-10-7-7-7--5-5-5-

-11-11-11-11-11-11-7-7-7--6-6-6-

-12-12-12-11-11-11-9-9-9--7-7-7-

-12-12-12-9--9--9--9-9-9--7-7-7-

-10-10-10-9--9--9--7-7-7--5-5-5-

-----------

-----------

-----0-2-4-

-2-4-------

-----------

-----------

Rythm guitar plays these chords

D Bm G A

D Bm G A

D Bm G A

F#m

-----|-----------------|--------------------------------2-

-2-3-|-2-3-5-3-2-3-2---|-2-3-5-3-2-3-2---3--------------2-

-----|---------------4-|---------------4---4-2---2-4----2-

-----|-----------------|-----------------------5-----5--4-

-----|-----------------|--------------------------------4-

-----|-----------------|----------------------------------

A

-5-5-5-5-5-5-

-5-5-5-5-5-5-

-6-6-6-6-6-6-

-7-7-7-7-7-7-

-7-7-7-7-7-7-

-5-5-5-5-5-5-

Rythm guitar plays these chords

D Bm G A

D Bm G A

D Bm G A

-----|-----------------|-------------------------------

-2-3-|-2-3-5-3-2-3-2---|-2-3-5-3-2-3-2---3-------------

-----|---------------4-|---------------4---4-2---2-4---

-----|-----------------|-----------------------5-----5-

-----|-----------------|-------------------------------

-----|-----------------|-------------------------------

D G D

-2--3--2--------

-3--3--3------3-

-2--4--2----2---

-4--5--4--4-----

-5--5--5--------

----------------

G F#

---------------------------------------2-

--------------3-3-3-2-3-3-3-2-3-2-3-3--2-

------4-4-4-2-4-4-4-2-4-4-4-2-4-2-4-4--3-

-2-4--5-5-5-2--------------------------4-

---------------------------------------4-

-----------------------------------------

G F# A

-2-2--2-2-2-2-2-2---2-2-2---2-2-2---2---2----2-|---------

-2-3--5-5-5-3-2-2---2-2-2---2-2-2---2---2----2-|---------

------------------4-------4-------4---4---4--3-|-2-------

-----------------------------------------------|---5-4-2-

-----------------------------------------------|---------

-----------------------------------------------|---------

Rythm guitar plays these chords

D Bm G A

D Bm G A

D Bm G A

-----|-----------------|-------------------------------

-2-3-|-2-3-5-3-2-3-2---|-2-3-5-3-2-3-2---3-------------

-----|---------------4-|---------------4---4-2---2-4---

-----|-----------------|-----------------------5-----5-

-----|-----------------|-------------------------------

-----|-----------------|-------------------------------

D G D

-2-2--3-3--10-

-3-3--3-3--10-

-2-2--4-4--11- bend chord with bar

-4-4--5-5-----

-5-5--5-5-----

------3-3-----

Get this song at:  amazon.com sheetmusicplus.com

Share your thoughts

0 Comments found