The Ventures

The Ventures - Out Of Limits guitar tab

"Out of Limits"

by the Ventures

from the Album "Play Guitar with the Ventures Vol.2"

transcribed by kevin gardner

transtrem@hotmail.com

'Out of Limits' was orginally recorded by the Marketts in late 1963.

It was a huge hit for the Markets, it also became a well known Ventures tune

after they recored it on their, 'In Space' Lp. The Ventures' version

features an organ playing the intro and a different choice of notes

in the main section of the song. Both the Ventures and the

Marketts versions had an ogan section in the middle and a

key change at the the end, the "play Guitar" version has neither.

TAB LEDGEND

B= Bend up one whole step

the chord progression is Em G A B throughout the entire song,

except sections 2,3,7,8,9, where the chords are written.

#1

-------------------------------

-------------------------------

---0-2-0-2B-2-0-2B-2-0-2-0---0-

-2-------------------------2---

-------------------------------

-------------------------------

#1

-------------------------------

-------------------------------

---0-2-0-2B-2-0-2B-2-0-2-0---0-

-2-------------------------2---

-------------------------------

-------------------------------

#1

-------------------------------

-------------------------------

---0-2-0-2B-2-0-2B-2-0-2-0---0-

-2-------------------------2---

-------------------------------

-------------------------------

#2 #4

G B

-3-3-3-3-3-3-3----------------

-0-0-0-0-0-0-0--4-4-4-4-4-4-4-

-0-0-0-0-0-0-0--4-4-4-4-4-4-4-

-0-0-0-0-0-0-0--4-4-4-4-4-4-4-

-2-2-2-2-2-2-2--2-2-2-2-2-2-2-

-3-3-3-3-3-3-3----------------

#4

---------------------------

---------------------------

---------------------------

------------------12-14-12-

----10-12-10---14----------

-12------------------------

#5

--------------------------------------12----------

-----------------------------------12----12-------

--------14----14----14----14----14----------14-12-

-14--14----14----14----14----14-------------------

--------------------------------------------------

--------------------------------------------------

#6

--------------------------------------------------------------

-------12-12--------------------------------------------------

----12-------14-12------------------12-14-12------------------

-14----------------14-12-14---12-14----------14B-14B-14-12----

-----------------------------------------------------------14-

--------------------------------------------------------------

#7 #8

G B

-3-3-3-3-3-3-3----------------

-0-0-0-0-0-0-0--4-4-4-4-4-4-4-

-0-0-0-0-0-0-0--4-4-4-4-4-4-4-

-0-0-0-0-0-0-0--4-4-4-4-4-4-4-

-2-2-2-2-2-2-2--2-2-2-2-2-2-2-

-3-3-3-3-3-3-3----------------

#9

Em

-0-

-0-

-0-

-2-

-2-

-0-

Get this song at:  amazon.com sheetmusicplus.com

Share your thoughts

0 Comments found