The Ventures

The Ventures - No Matter What Shape Your Stomachs In guitar tab

No Matter What Shape Your Stomach’s In

as recorded by the Ventures

from the LP The Ventures Play Guitar Vol. 3

transcribed by Kevin Gardner transtrem@hotmail.com

Behind diagrams #1 and #2 another guitar plays C and F repeatedly

lead guitar charts

diagram #1

------|------------|-----------------|------------|

-8----|-11-10----8-|---------10-8----|-11-10----8-|

---10-|-------10---|-10-9-10------10-|-------10---|

------|------------|-----------------|------------|

------|------------|-----------------|------------|

------|------------|-----------------|------------|

diagram #2

-----------------|------------|----------------------------|

---------10-8----|-11-10----8-|--------------8--10-11-10-8-|

-10-9-10------10-|-------10---|-9-7-9-7----9---------------|

-----------------|------------|---------10-----------------|

-----------------|------------|----------------------------|

-----------------|------------|----------------------------|

diagram #3

this section combines both guitars

---------|-8-------------|

---------|---11-8--------|

---------|--------8-10-8-|

---------|---------------|

-3-4-5-6-|---------------|

---------|---------------|

----------|-8-------------|

----------|---11-8--------|

----------|--------8-10-8-|

----------|---------------|

6-5-6-5-3-|---------------|

----------|---------------|

-----------|-8-------------|

-----------|---11-8--------|

-----------|--------8-10-8-|

-----------|---------------|

-3-1-3-1---|---------------|

---------4-|---------------|

G C F C

-----3-3-3-3-0-0-1-1-0-

-----0-0-0-0-1-1-1-1-1-

-----0-0-0-0-0-0-2-2-0-

-----0-0-0-0-2-2-3-3-2-

-----2-2-2-2-3-3-3-3-3-

-4-4-3-3-3-3-----1-1---

Get this song at:  amazon.com sheetmusicplus.com

Share your thoughts

0 Comments found