The Ventures

The Ventures - Man Of Mystery guitar tab

"Man of Mystery"

by the Shadows

transcribed by kevin gardner

transtrem@hotmail.com

intro, play this twice

-12----------------------------

-15B---------------------------

-------------------------------

-------------------------------

-------------------------------

-------------------------------

------0-play steady open e note

Am E C

---------|-------------|---------|

-----6-5-|-----6-5-6-5-|-----6-5-|

---5-----|---4---------|---3-----|

-7-------|-6-----------|-5-------|

---------|-------------|---------|

---------|-------------|---------|

D Dm Am

-------------|---------|-------------|

-----5-3-5-3-|-----5-3-|-----3-1-3-1-|

---2---------|---2-----|---2---------|

-4-----------|-3-------|-2-----------|

-------------|---------|-------------|

-------------|---------|-------------|

---------------------------

-1--0--1--0--1--0--1-0-1-0-

---------------------------

---------------------------

---------------------------

---------------------------

Am E C

---------|-------------|---------|

-----6-5-|-----6-5-6-5-|-----6-5-|

---5-----|---4---------|---3-----|

-7-------|-6-----------|-5-------|

---------|-------------|---------|

---------|-------------|---------|

D Dm Am

-------------|---------|-------------|

-----5-3-5-3-|-----5-3-|-----3-1-3-1-|

---2---------|---2-----|---2---------|

-4-----------|-3-------|-2-----------|

-------------|---------|-------------|

-------------|---------|-------------|

-------------0-------------

-1-0---0-1-0-1--bend-------

-----2-------2----w/bar----

-------------2-------------

-------------0-------------

---------------------------

Dm Am

-----7-5-|-----7-5-7-5-

---6-----|---5---------

-7-------|-5-----------

---------|-------------

---------|-------------

---------|-------------

---------|-----------------

---------|-----------------

---------|-----------------

---------|-------0-1-1-0---

-5-4-3-2-|-0-0-3---------3-

---------|-----------------

now play these chords: Dm Am B and then:

-12---

-15B--

------

------

------

------

------

Get this song at:  amazon.com sheetmusicplus.com

Share your thoughts

0 Comments found