The Ventures

The Ventures - Lullaby Of The Leaves guitar tab

"Lullaaby of the Leaves"

as recorded by The Ventures

from the Lp "Another Smash!!!"

transcribed by kevin gardner

transtrem@hotmail.com

> = trem bar bend

h = hammer on

p = pull off

/ = slide

B = full step bend

-------------------------------------|--------------------------------------

-------------------------------------|--------------------------------------

-------------------------------------|--------------------------------------

-7-7-7-----5-5-5-----3-3-3--2--2-2-2-|--7-7-7-----5-5-5-----3-3-3--2--2-2-2-

-7-7-7-----5-5-5-----3-3-3--2--2-2-2-|--7-7-7-----5-5-5-----3-3-3--2--2-2-2-

-5-5-5--0--3-3-3--0--1-1-1--0--0-0-0-|--5-5-5--0--3-3-3--0--1-1-1--0--0-0-0-

-----------------------0>-|----------------------------|-----------0>-------------

-----------------------1>-|-0---0-0>----------------0>-|-----------1>-------------

---------------------2-2>-|---2---2>---0------------1>-|-----------2>-2-----------

-------------0-0-2-2------|----------2---3---0-2-2--2>-|-2-2-2-----2>---2-0h2p0---

-0-0-2-2-3-3--------------|----------------3-----------|-------3-2-0>-----------3-

--------------------------|----------------------------|--------------------------

-----------------------0>-|----------------------------|-----------0>-0-

-----------------------1>-|-0---0-0>----------------0>-|-----------1>-1-

---------------------2-2>-|---2---2>---0------------1>-|-----------2>-2-

-------------0-0-2-2------|----------2---3---0-2-2--2>-|-2-2-2-----2>-2-

-0-0-2-2-3-3--------------|----------------3-----------|-------3-2-0>-0-

--------------------------|----------------------------|----------------

----------------------------------------------

----------------------------------------------

-------------------------------3-5------3-3-5-

-3/6-6-6/3-3--3/6-6-6/3-3----5--------5-------

-3/6-6-6/3-3--3/6-6-6/3-3--3--------3---------

-1/4-4-4/1-1--1/4-4-4/1-1---------------------

C Em Dm G

------------------------------8--------7--------5--------3-----

--------------------------------8--------8--------6--------3---

----------------------------------9--------9--------7--------4-

-3/6-6-6/3-3--3/6-6-6/3-3--10--------9--------7--------5-------

-3/6-6-6/3-3--3/6-6-6/3-3--------------------------------------

-1/4-4-4/1-1--1/4-4-4/1-1--------------------------------------

-----------------------0>-|----------------------------|-----------0>-5>-

-----------------------1>-|-0---0-0>----------------0>-|-----------1>-5>-

---------------------2-2>-|---2---2>---0------------1>-|-----------2>-5>-

-------------0-0-2-2------|----------2---3---0-2-2--2>-|-2-2-2-----2>-7>-

-0-0-2-2-3-3--------------|----------------3-----------|-------3-2-0>----

--------------------------|----------------------------|-----------------

-------------------------------------|--------------------------------------

-------------------------------------|--------------------------------------

-------------------------------------|--------------------------------------

-7-7-7-----5-5-5-----3-3-3--2--2-2-2-|--7-7-7-----5-5-5-----3-3-3--2--2-2-2-

-7-7-7-----5-5-5-----3-3-3--2--2-2-2-|--7-7-7-----5-5-5-----3-3-3--2--2-2-2-

-5-5-5--0--3-3-3--0--1-1-1--0--0-0-0-|--5-5-5--0--3-3-3--0--1-1-1--0--0-0-0-

-----------------------0>-|----------------------------|-----------0>----------$

-----------------------1>-|-0---0-0>----------------0>-|-----------1>----------$

---------------------2-2>-|---2---2>---0------------1>-|-----------2>-2--------$

-------------0-0-2-2------|----------2---3---0-2-2--2>-|-2-2-2-----2>---2-0h2p0$

-0-0-2-2-3-3--------------|----------------3-----------|-------3-2-0>----------$

--------------------------|----------------------------|-----------------------$

-----------------------0>-|----------------------------|-----------0>-0-

-----------------------1>-|-0---0-0>----------------0>-|-----------1>-1-

---------------------2-2>-|---2---2>---0------------1>-|-----------2>-2-

-------------0-0-2-2------|----------2---3---0-2-2--2>-|-2-2-2-----2>-2-

-0-0-2-2-3-3--------------|----------------3-----------|-------3-2-0>-0-

--------------------------|----------------------------|----------------

---------------------------8-----8----------------------

-----------------------------11B---11B------------------

---------------------------------------8-----8----------

-3/6-6-6/3-3--3/6-6-6/3-3----------------10B---10B-8----

-3/6-6-6/3-3--3/6-6-6/3-3----------------------------10-

-1/4-4-4/1-1--1/4-4-4/1-1-------------------------------

C Em Dm G

------------------------------8--------7--------5--------3-----

--------------------------------8--------8--------6--------3---

----------------------------------9--------9--------7--------4-

-3/6-6-6/3-3--3/6-6-6/3-3--10--------9--------7--------5-------

-3/6-6-6/3-3--3/6-6-6/3-3--------------------------------------

-1/4-4-4/1-1--1/4-4-4/1-1--------------------------------------

-----------------------0>-|----------------------------|-----------0>--

-----------------------1>-|-0---0-0>----------------0>-|-----------1>--

---------------------2-2>-|---2---2>---0------------1>-|-----------2>--

-------------0-0-2-2------|----------2---3---0-2-2--2>-|-2-2-2-----2>--

-0-0-2-2-3-3--------------|----------------3-----------|-------3-2-0>--

--------------------------|----------------------------|---------------

--------------------------------0-

-----------0>-------------------1-

-----------1>-------------------2-

---0-2-2-2-2>--2-2-0-0----------2-

-3---------------------3-3-2-0--0-

----------------------------------

Get this song at:  amazon.com sheetmusicplus.com

Share your thoughts

0 Comments found