The Ventures

The Ventures - Lets Go guitar tab

"Let's Go"

by the Ventures

from the Album "Play Guitar with the Ventures Vol. 2"

transcribed by kevin gardner

transtrem@hotmail.com

This song was origally recorded by the Routers and released as,

"Let's Go (Pony) in October 1962. The original version included

a guitar solo; a sax solo; and at the end a key change. The

version on "Play Guitar Vol.2" represents the main riff, in the

first key, C.

================================================================

p=pull of

C C

-------------------------|-------------------------

-------------------------|-------------------------

-------------------------|-------------------------

----------2-3-2----------|----------2-3-2----------

---0-2--3-------3-2-0--3-|---0-2--3-------3-2-0--3-

-3-----------------------|-3-----------------------

F C

-------------------------|-------------------------

-------------------------|-------------------------

----------2-3-2----------|-------------------------

---0-2--3-------3-2-0--3-|----------2-3-2----------

-3-----------------------|---0-2--3-------3-2-0--3-

-------------------------|-3-----------------------

G7 F7 C

-------------------|---------------------------

-------------------|---------------------------

-------------------|---------------------------

-----------0-2p0---|-------0-----2-3-2---------

---------2-------2-|---0-3---0-3-------3-2-0-3-

-0-1-2-3-----------|-1-------------------------

Get this song at:  amazon.com sheetmusicplus.com

Share your thoughts

0 Comments found