The Ventures

The Ventures - Journey To The Stars guitar tab

Journey to the Stars

as recoded by the Ventures

from the album, Live in Japan '65

transcribed by Kevin Gardner transtrem@hotmail.com

notes on this song:

there are two interesting tenchniques used on this tune:

#1 trem picking, or double picking, this is when the note is played several times very fast

#2 trem slide this is the sound heard at the start of "pipeline".

It is proformed by:

=mutting the bridge of the guitar w/the right hand palm

=sliding down from the high frets to the low frets with a left hand finger

=not pressing the left hand finger doen hard on the strings

tab legend

trem pick = see above

trem slide = see above

p = pull off

h = hammer on

/=slide

~ = aprpegiate

play these chords: A C A D

--8------

----10---

--------- play this serveral times

---------

---------

---------

trem pick start

-------|-----------|---------|---------------------|-------

-------|-----------|---------|---------------------|-------

-------|-----------|---------|---------------------|-trem--

-------|-----------|---------|-------------2-0-----|-slide-

-0-2-3-|-(3)-2-0-2-|-0-------|-----------2-----3-2-|-------

-------|-----------|---4-5-0-|-1-3-1-0-4-----------|-------

-------|-----------|---------|---------------------|-8-------

-------|-----------|---------|---------------------|---10----

-------|-----------|---------|---------------------|-play----

-------|-----------|---------|-------------2-0-----|-several-

-0-2-3-|-(3)-2-0-2-|-0-------|-----------2-----3-2-|--times--

-------|-----------|---4-5-0-|-1-3-1-0-4-----------|---------

trem pick stop

----------------------------------|--------------------|---------------|-----

---0-1--0h1p0---------------------|--------------------|-----0-5-3-1-0-|-T-S-

-2-------------2-2/4-2h4p2--1-2---|--------------------|---1-----------|-r-l-

--------------------------------2-|-2-2/3--3-5-3-5-3-2-|-2-------------|-e-i-

----------------------------------|--------------------|---------------|-m-d-

----------------------------------|--------------------|---------------|---e-

----------------------------------|--------------------|---------------|------

---0-1--0h1p0---------------------|--------------------|-----0-5-3-1-0-|------

-2-------------2-2/4-2h4p2--1-2---|--------------------|---1-----------|-2--2-

--------------------------------2-|-2-2/3--3-5-3-5-3-2-|-2-------------|-2--2-

----------------------------------|--------------------|---------------|-0--0-

----------------------------------|--------------------|---------------|------

-2~--2~-2~-2~-2~--5-4---------|-2~--2~-2~-2~-2~--5-4----

-3~--3~-3~-3~-3~------6h9p6---|-3~--3~-3~-3~-3~---------

-2~--2~-2~-2~-2~------------6-|-2~--2~-2~-2~-2~---------

-0~--0~-0~-0~-0~--------------|-0~--0~-0~-0~-0~---------

------------------------------|-------------------------

------------------------------|-------------------------

------------------------------|-------------------------

-5~--5~-5~-5~-5~--8-7----------|-5~--5~-5~-5~-5~--8-7----

-6~--6~-6~-6~-6~------9h12p9---|-6~--6~-6~-6~-6~---------

-5~--5~-5~-5~-5~-------------9-|-5~--5~-5~-5~-5~---------

-------------------------------|-------------------------

-------------------------------|-------------------------

-------------------------------|-------------------------

-------------------------------|-------------------------

--8------

----10---

--------- play this serveral times

---------

---------

---------

----------------------------------|--------------------|---------------|-----

---0-1--0h1p0---------------------|--------------------|-----0-5-3-1-0-|-T-S-

-2-------------2-2/4-2h4p2--1-2---|--------------------|---1-----------|-r-l-

--------------------------------2-|-2-2/3--3-5-3-5-3-2-|-2-------------|-e-i-

----------------------------------|--------------------|---------------|-m-d-

----------------------------------|--------------------|---------------|---e-

----------------------------------|--------------------|---------------|- ---0-1--0h1p0---------------------|--------------------|-----0-5-3-1-0-|- -2-------------2-2/4-2h4p2--1-2---|--------------------|---1-----------|- --------------------------------2-|-2-2/3--3-5-3-5-3-2-|-2-------------|- ----------------------------------|--------------------|---------------|- ----------------------------------|--------------------|---------------|-

--8------

----10---

--------- play this serveral times

---------

---------

---------

Get this song at:  amazon.com sheetmusicplus.com

Share your thoughts

0 Comments found