The Ventures

The Ventures - Hawaii Five O guitar tab

Hawaii Five-O

The Ventures (Mort Stevens)

:10

e -----------------------------------------------------6-----------------

B -------------------------------------8---6-6-----6-8---8-6-------------

G -------7-5-----------------------7-5---------7-8-----------7---5-7---5-

D -5-5-8-----5---5-5---8-5---5-5-8-----------------------------8-----8---

A -------------------8---------------------------------------------------

E -----------------------------------------------------------------------

:22

e -8-6---------------------------------------------

B -----8-6-----------------8-6--------8-6-6--------

G ---------8-7---5-7-5-8-5------7---5-------7-4-5--

D -------------8------------------8---------------6

A -------------------------------------------------

E -------------------------------------------------

:31 (1/2 note up)

e -----------------------------------------------------7-----------------

B -------------------------------------9---7-7-----7-9---9-7-------------

G -------8-6-----------------------8-6---------8-9-----------8---6-8---6-

D -6-6-9-----6---6-6---9-6---6-6-9-----------------------------9-----9---

A -------------------9---------------------------------------------------

E -----------------------------------------------------------------------

:53

e ------------------------------

B ------------------------------

G ------------------------------

D ------------------------------

A ------------------------------

E ------------------------------

1:13

e ------------------------------

B ------------------------------

G ------------------------------

D ------------------------------

A ------------------------------

E ------------------------------

1:21

e ---------------------------------------

B -------------------------------------3-

G ---------------------------2-0-0-0-3---

D -----------------2-0-0-0-3-------------

A -------2-0-0-0-3-----------------------

Get this song at:  amazon.com sheetmusicplus.com

Share your thoughts

0 Comments found