The Ventures

The Ventures - Baja guitar tab

"Baja"

by the Ventures

from the Album "Wild Again"

transcribed by kevin gardner

transtrem@hotmail.com

http://www.wam.umd.edu/~code

TAB LEDGEND

pm = palm mute

/ = slide

There are two parts to this song.

Section #1

E D E D D

---------------|----------------|------------7------|-------------|

---------7-9---|-7-7-7-7-9-10-7-|-9-9-9-9-10---10-7-|-10-9-7-9----|

-9-9-9-9-----9-|----------------|-------------------|----------9--|

---------------|----------------|-------------------|-------------|

---------------|----------------|-------------------|-------------|

---------------|----------------|-------------------|-------------|

pm.................................................................

D E D E

---------------------------------|-------------------------------------|

---------------------------------|-------------------------------------|

---------------------------------|-------------------------------------|

-0-0-0-0-0-0-0-0-0-0-0-0-0-0--2--|-0-0-0-0-0-0-0-0-0-0-0-0-0-0--2-0-2--|

---------------------------------|-------------------------------------|

---------------------------------|-------------------------------------|

section #2

G D C D

---------7------|-5---------5-|-3-------3---|-----0---|

-----8-8---10-8-|---7---5/7---|---5---5---5-|---3---3-|

---7------------|-----7-------|-----5-------|-2-------|

-9--------------|-------------|-------------|---------|

----------------|-------------|-------------|---------|

----------------|-------------|-------------|---------|

G D C D E

---------7------|-5---------5-|-3-------3---|---2-2-2-2-0---0-|

-----8-8---10-8-|---7---5/7---|---5---5---5-|-------------3-0-|

---7------------|-----7-------|-----5-------|-2---------------|

-9--------------|-------------|-------------|-----------------|

----------------|-------------|-------------|-----------------|

----------------|-------------|-------------|-----------------|

Get this song at:  amazon.com sheetmusicplus.com

Share your thoughts

0 Comments found