The Ventures

The Ventures - Apache 65 (Live) guitar tab

"Apache '65"

by the Ventures

from the Album "On Stage"

transcribed by kevin gardner

transtrem@hotmail.com

http://www.wam.umd.edu/~code

TAB LEDGEND

/ = slide

B = bend note up one step

Am D Am D

-----------|-------17-15----|-----------|-------17-15----|

----13-15B-|----13-------17-|----13-15B-|----13-------17-|

-14--------|-14-------------|-14--------|-14-------------|

-----------|----------------|-----------|----------------|

-----------|----------------|-----------|----------------|

-----------|----------------|-----------|----------------|

Am D Am

--------------------------------------------|

------------------------13-15B--13-15/13----|

---------------------14------------------14-|

-7/--2-7-7/4--2-0-2-------------------------|

--------------------------------------------|

--------------------------------------------|

Am D Am

---------------------------------------------|

-------------------------13-15B--13-15/13----|

----------------------14------------------14-|

-2/--7---7-7/4--2-0-2------------------------|

-------7-------------------------------------|

---------------------------------------------|

Dm G Dm

-------------------------13-15B--13-15-15/13----|

----------------------15---------------------15-|

-2/--7---7-7/4--2-0-2---------------------------|

-------7----------------------------------------|

------------------------------------------------|

------------------------------------------------|

Am D Am

---------------------------------------------|

-------------------------13-15B--13-15/13----|

----------------------14------------------14-|

-2/--7---7-7/4--2-0-2------------------------|

-------7-------------------------------------|

---------------------------------------------|

F Am

-------------------------------------------------------------

-------------------------------------------------------------scrape

-------------------------------------------------------------low string

---3-3-3-------3-3-3-------3-3-3-------3-3-3-------3-3-3--2/-with finger

-3-------3-3-3-------3-3-3-------3-3-3-------3-3-3-----------

-------------------------------------------------------------

F Am

-------------------------------------------------------------

-------------------------------------------------------------scrape

-------------------------------------------------------------low string

---3-3-3-------3-3-3-------3-3-3-------3-3-3-------3-3-3--2/-with finger

-3-------3-3-3-------3-3-3-------3-3-3-------3-3-3-----------

-------------------------------------------------------------

F G Am Am

-------------0-------|-12----------

-----1-0-1-3---3-1---|----15-13----

---2---------------2-|----------14-

-3-------------------|-------------

---------------------|-------------

---------------------|-------------

F G C C

---------------|-12-10-------------------

-----1-0-1-3---|-------13-11-------------

---2---------0-|-------------12-9-7------

-3-------------|--------------------10-7-

---------------|-------------------------

---------------|-------------------------

F G Am Am

-------------0-------|-12----------

-----1-0-1-3---3-1---|----15-13----

---2---------------2-|----------14-

-3-------------------|-------------

---------------------|-------------

---------------------|-------------

F Am

-------------------------------------------------------------

-------------------------------------------------------------scrape

-------------------------------------------------------------low string

---3-3-3-------3-3-3-------3-3-3-------3-3-3-------3-3-3--2/-with finger

-3-------3-3-3-------3-3-3-------3-3-3-------3-3-3-----------

-------------------------------------------------------------

F Am

-------------------------------------------------------------

-------------------------------------------------------------scrape

-------------------------------------------------------------low string

---3-3-3-------3-3-3-------3-3-3-------3-3-3-------3-3-3--2/-with finger

-3-------3-3-3-------3-3-3-------3-3-3-------3-3-3-----------

-------------------------------------------------------------

Am D Am D

trem pick............ ....................

palm mute............ ....................

-17----17-14--------------17----17-14----------

----17-------17-15-17-17-----17-------17-15-17-

-----------------------------------------------

-----------------------------------------------

-----------------------------------------------

-----------------------------------------------

Dm G Am D

trem pick............

palm mute............

-----------------------17----17-14----------

--------------------------17-------17-15-17-

-2/--7---7-7/4--2-0-2-----------------------

-------7------------------------------------

--------------------------------------------

--------------------------------------------

F G Am Am

-------------0-------|-12----------

-----1-0-1-3---3-1---|----15-13----

---2---------------2-|----------14-

-3-------------------|-------------

---------------------|-------------

---------------------|-------------

F G C C

---------------|-12-10-------------------

-----1-0-1-3---|-------13-11-------------

---2---------0-|-------------12-9-7------

-3-------------|--------------------10-7-

---------------|-------------------------

---------------|-------------------------

F G Am Am

-------------0-------|-12----------

-----1-0-1-3---3-1---|----15-13----

---2---------------2-|----------14-

-3-------------------|-------------

---------------------|-------------

---------------------|-------------

F Am

-------------------------------------------------------------

-------------------------------------------------------------scrape

-------------------------------------------------------------low string

---3-3-3-------3-3-3-------3-3-3-------3-3-3-------3-3-3--2/-with finger

-3-------3-3-3-------3-3-3-------3-3-3-------3-3-3-----------

-------------------------------------------------------------

F Am

-------------------------------------------------------------

-------------------------------------------------------------scrape

-------------------------------------------------------------low string

---3-3-3-------3-3-3-------3-3-3-------3-3-3-------3-3-3--2/-with finger

-3-------3-3-3-------3-3-3-------3-3-3-------3-3-3-----------

-------------------------------------------------------------

Am D Am D Am D

-----------|-------17-15----|-----------|-------17-15----|-----------|-------17-15----

----13-15B-|----13-------17-|----13-15B-|----13-------17-|----13-15B-|----13-------17-

-14--------|-14-------------|-14--------|-14-------------|-14--------|-14-------------

-----------|----------------|-----------|----------------|-----------|----------------

-----------|----------------|-----------|----------------|-----------|----------------

-----------|----------------|-----------|----------------|-----------|----------------

play an Am chord to end

Get this song at:  amazon.com sheetmusicplus.com

Share your thoughts

0 Comments found