The Ventures

Wipeout Tabs



More from The Ventures

The Ventures Tabs

Wipe Out"
by the Ventures
from the Album "Play Guitar with the Ventures Vol. 2"
transcribed by kevin gardner
               transtrem@hotmail.com

              

This song was origally recorded by the Surfaris.  The Ventures
play the main riff one octave lower than the Surfaris.  The
version on "Play Guitar" features a rhythm guitar playing behind
the lead, this is not in the studio version (I think).  When played
live the two guitars both play the riff, and there is no rhythm in
the background.  This version also has no guitar solo, or chord
stops that occur durring the drum solo.
================================================================

       C
-----------------------------------------------------------------
-----------------------------------------------------------------
-----------------------------------------------------------------
-----------------------------------------------------------------
---1-2-3-3-3-1----1-2-3-3-3-1-----1-2-3-3-3-1-----1-2-3-3-3-1------
-3-------------3-3-------------3-3-------------3-3-------------3-


       F7
---------------------------------
---------------------------------
---------------------------------
---1-2-3-3-3-1-----1-2-3-3-3-1---
-3-------------3-3-------------3-
---------------------------------

       C
---------------------------------
---------------------------------
---------------------------------
---------------------------------
---1-2-3-3-3-1-----1-2-3-3-3-1---
-3-------------3-3-------------3-

       G7                F7
-------------------|---------------
-------------------|---------------
-------------------|---------------
---3-4-5-5-5-3-----|-5-4-3-3-3-----
-5-------------5-5-|-----------6-3-
-------------------|---------------

       C
-------------------------
-------------------------
-------------------------
-------------------------
---1-2-3-3-3-1-----1-2-3-
-3-------------3-3-------
Get this song at amazon.com      Ebay     Ringtones Ringtones  


Learn to play: Songwriting, Piano, Harmonica, Guitar
Also available at Muzikum: The Ventures - Wipeout lyrics

Related The Ventures Tabs

Diamonds tabs
The Ninth Wave tabs
Apache 65 (Live) tabs
Walk Dont Run tabs
Pipleline tabs
Honky Tonk tabs
Perfidia tabs
Riders In The Sky tabs
Movin And Grovin tabs
Memphis tabs
Baja tabs
Mr Moto tabs
Lets Go tabs
Wipeout tabs
Rap City tabs
Tequila tabs
Lullaby Of The Leaves tabs
Secret Agent Man tabs
Diamond Head tabs
Yellow Jacket tabs


Guitar Tabs









All tabs are property and copyright of their owners. All tabs provided for educational purposes only. Privacy Policy, DMCA