The Ventures

Diamond Head Tabs



More from The Ventures

The Ventures Tabs

"Diamond Head"
as recorded by the Ventures
from the LP 'Walk Don't Run II'
transcribed by Kevin Gardner
               transtrem@hotmail.com

pm = palm mute
b  = bend up 1/2 step
/  = slide


------------------------------------
------------------------------------
------------------------------------
------------------------------------
------------------------------------
-0-0-0-0--3-3-3-3--0-0-0-0--3-3-3-3-
pm..................................

------------------------------------
------------------------------------
------------------------------------
------------------------------------
------------------------------------
-0-0-0-0--3-3-3-3--0-0-0-0--3-3-3-3-
pm..................................


Am
----------------------------------------------------
---------------------------------------------------- bass
---------------------------------------------------- aranged
-----0-2-0-------0-2-0-------0-2-0-------0-2-0------ for
-0-3-------3--0-3-------3--0-3-------3--0-3-------3- guitar
----------------------------------------------------

Am        G          Am
--------------------------5-----7-----8-----7-----5-----
----------------------------5-----5-----5-----5-----5---
-----5----4--4-5-4------------5-----5-----5-----5-----5-
-7-7---7--5--------5--7---------------------------------
--------------------------------------------------------
--------------------------------------------------------

Am        G          Am
--------------------------5-----7-----8-----7-5---
----------------------------5-----5-----5------5--
-----5----4--4-5-4------------5-----5-----5-------
-7-7---7--5--------5--7---------------------------
--------------------------------------------------
--------------------------------------------------

        Dm
----------------------------------------------
----------------------------------------------
---5-6--7-7-5---5-7-7-5---5-7-7-5---5-7-7-5---
-7------------7---------7---------7---------7-
----------------------------------------------
----------------------------------------------
         pm...................................

Am
-5-------------------
---8-----------------
-----7b-5------------
-----------7-5-------
---------------7/5-3-
---------------------


Dm                                      E7
----------------------------------------0--------
------------------------------------------3------
-7-7-5---5-7-7-5---5-7-7-5---5-7-7-5--------2b-0- pipeline
-------7---------7---------7---------7----------- slide
-------------------------------------------------
-------------------------------------------------
pm...................................



Am        G          Am
--------------------------5-----7-----8-----7-----5-----
----------------------------5-----5-----5-----5-----5---
-----5----4--4-5-4------------5-----5-----5-----5-----5-
-7-7---7--5--------5--7---------------------------------
--------------------------------------------------------
--------------------------------------------------------

Am        G          Am
--------------------------5-----7-----8-----7-5---
----------------------------5-----5-----5------5--
-----5----4--4-5-4------------5-----5-----5-------
-7-7---7--5--------5--7---------------------------
--------------------------------------------------
--------------------------------------------------

        Dm
----------------------------------------------
----------------------------------------------
---5-6--7-7-5---5-7-7-5---5-7-7-5---5-7-7-5---
-7------------7---------7---------7---------7-
----------------------------------------------
----------------------------------------------
         pm...................................

Am
-5-------------------
---8-----------------
-----7b-5------------
-----------7-5-------
---------------7/5-3-
---------------------


Dm                                      E7
----------------------------------------0--------
------------------------------------------3------
-7-7-5---5-7-7-5---5-7-7-5---5-7-7-5--------2b-0- pipeline
-------7---------7---------7---------7----------- slide
-------------------------------------------------
-------------------------------------------------
pm...................................


 Dm     Fm       Dm     Fm
---5-5-----8--8-----5-5-----8--8--
---6-6-----9--9-----6-6-----9--9--
---7-7----10-10-----7-7----10-10--
---7-7----10-10-----7-7----10-10--
-5-5-5--8--8--8---5-5-5--8--8--8--
----------------------------------

Am
-5-------------------
---8-----------------
-----7b-5------------
-----------7-5-------
---------------7/5-3-
---------------------

 Dm     Fm       Dm     Fm
---5-5-----8--8-----5-5-----8--8--
---6-6-----9--9-----6-6-----9--9--
---7-7----10-10-----7-7----10-10--
---7-7----10-10-----7-7----10-10--
-5-5-5--8--8--8---5-5-5--8--8--8--
----------------------------------

E7
-------------------
-------------------
-------------------
-------------------
-2-2-2-2-2-2-2-2-2-
-0-0-0-0-0-0-0-0-0-

Am
----------------------------------------------------
---------------------------------------------------- bass
---------------------------------------------------- aranged
-----0-2-0-------0-2-0-------0-2-0-------0-2-0------ for
-0-3-------3--0-3-------3--0-3-------3--0-3-------3- guitar
----------------------------------------------------

Am        G          Am
--------------------------5-----7-----8-----7-----5-----
----------------------------5-----5-----5-----5-----5---
-----5----4--4-5-4------------5-----5-----5-----5-----5-
-7-7---7--5--------5--7---------------------------------
--------------------------------------------------------
--------------------------------------------------------

Am        G          Am
--------------------------5-----7-----8-----7-5---
----------------------------5-----5-----5------5--
-----5----4--4-5-4------------5-----5-----5-------
-7-7---7--5--------5--7---------------------------
--------------------------------------------------
--------------------------------------------------

        Dm
----------------------------------------------
----------------------------------------------
---5-6--7-7-5---5-7-7-5---5-7-7-5---5-7-7-5---
-7------------7---------7---------7---------7-
----------------------------------------------
----------------------------------------------
         pm...................................

Am
-5-------------------
---8-----------------
-----7b-5------------
-----------7-5-------
---------------7/5-3-
---------------------


Dm                                      E7
----------------------------------------0--------
------------------------------------------3------
-7-7-5---5-7-7-5---5-7-7-5---5-7-7-5--------2b-0- pipeline
-------7---------7---------7---------7----------- slide
-------------------------------------------------
-------------------------------------------------
pm...................................
Get this song at amazon.com      Ebay     Ringtones Ringtones  


Learn to play: Songwriting, Piano, Harmonica, Guitar
Also available at Muzikum: The Ventures - Diamond Head lyrics

Related The Ventures Tabs

Baja tabs
Hawaii Five O tabs
Telstar tabs
Rap City tabs
Out Of Limits tabs
Apache 65 (Live) tabs
Man Of Mystery tabs
Memphis tabs
The Cruel Sea tabs
Riders In The Sky tabs
Journey To The Stars tabs
No Matter What Shape Your Stomachs In tabs
The Ninth Wave tabs
Ginza Lights tabs
Pipleline tabs
Lets Go tabs
Raunchy tabs
Mr Moto tabs
Secret Agent Man tabs
Caravan tabs


Guitar Tabs









All tabs are property and copyright of their owners. All tabs provided for educational purposes only. Privacy Policy, DMCA