The Shadows

The Shadows - The Deer Hunter Theme Cavatina guitar tab

------------------------------------------------------------------------------

------------------------------------------------------------------------------

-4-4-2-4-6-2-4-6-4-2-4-2-1-1-1------------------------------------------------

---------------------------------4-2-4-4-2-2-2-4-1-2--------------------------

------------------------------------------------------------------------------

------------------------------------------------------------------------------

-----7-12-12-11-9-9-11-9-7-5-7-2-4--------------------------------------------

-5-9-----------------------------------------5-7-9-9-7-5-7-7-5-5-5-5-7-4-5----

------------------------------------------------------------------------------

------------------------------------------------------------------------------

------------------------------------------------------------------------------

------------------------------------------------------------------------------

--7-7-5-7-9-5-7-9-7-5-7-5-4-4-4-2---2-2---------------------------------------

----------------------------------5-----5-5-5-7-4-5---------------------------

------------------------------------------------------------------------------

------------------------------------------------------------------------------

------------------------------------------------------------------------------

------------------------------------------------------------------------------

-------7-12-12-11-9-11-11-9-7-5-7-2-4-----------------------------------------

--5-9-------------------------------------5-7-9-10-11-7-12-12-12-17-15-19-----

------------------------------------------------------------------------------

------------------------------------------------------------------------------

------------------------------------------------------------------------------

------------------------------------------------------------------------------

-19-19-19-17-19-21-17-19-21-19-17-19-17-16-16-16-14-12-14-14-12-12-12-14-11-12

------------------------------------------------------------------------------

------------------------------------------------------------------------------

------------------------------------------------------------------------------

------------------------------------------------------------------------------

------------------------------------------------------------------------------

-----7-12---------------------

-5-9------2-4-4-6-8-6-4-4-----

------------------------------

------------------------------

------------------------------

------------------------------

Get this song at:  amazon.com sheetmusicplus.com

Share your thoughts

0 Comments found