The Doors

The Doors - L A Woman bass tab

L.A. Woman - The Doors

verse riff "city of niiiight" (x2)

G|--------|---------------------------|

D|--------|-2-5--5----5-5-57--7-7-----|

A|--------|------------5-7------------|

E|01355555|3-3--3--357-------5-5-55555|

"I see your hair is burnin'..."

riff

G|---------|

D|-275-----|

A|3-----535|

E|---------|

"cops in cars, the topless bars..."

(x5)

G|--------|

D|7-7-7-7-|

A|--------|

E|--------|

"so alone" (x2)

G|---------------------------|

D|-2-5--5----5-5-57--7-7-----|

A|------------5-7------------|

E|3-3--3--357-------5-5-55555|

play after "let's change the mood from glad to sadness" (x3)

G|---------------------------------------------------------------------|-------------------|

D|---7--5---------/7--/7-7-7\----/7--/7---5----7-75-5-7----/7-7--------|-----------------7-|

A|--------753---------------------------57---------7------------753----|---5-3-------------|

E|5-----------5--------------5--------------5-----------5-----------5--|-0-----5---5-3-5---|

"Mr. mojo risin"

Get this song at:  amazon.com sheetmusicplus.com

Share your thoughts

0 Comments found