The Clash

The Clash - Wrong Em Boyo bass tab

Wrong 'em Boyo Bass Tablature

by the clash

Transcribed by: Kory (airsick@hotmail.com)

The intro is mainly root notes, so I'll just put the names of the notes: E,D,C,D/E,D,C

[2X]

Why do you try to cheat..."

G:-----------------------------------------------------------

D:------------5----------------------------5-----------------

A:------2-55----5--3-2-------------2-55-----5--3-2-----------

E:---3-------------------------3-----------------------------

"Don't you know that it's wrong..."

G:--------------5--------------------------------------------

D:--------2-55-----5--3-2------------------------------------

A:----3------------------------------------------------------

E:-----------------------------------------------------------

"You better stop..."

G:-----------------------------------------------------------

D:------4-5-6-7----------------------------------------------

A:--5--------------------------------------------------------

E:-----------------------------------------------------------

Get this song at:  amazon.com sheetmusicplus.com

Share your thoughts

0 Comments found