The Clash

The Clash - White Riot guitar tab

CHORDS

E---------------0-----------0---

B---------------0-----------2---

G---------7-----1-----5-----2---

D---7-----7-----2-----5-----2---

A---7-----5-----2-----3-----0---

E---5-----------0---------------

A5 D5 Emaj C5 Amaj

INTRO

A5 D5 A5 D5 A5 D5 D5 A5 (repeat twice)

E---0-----------0--12-12-12-12---0-------12-------0----------- (use alternate

B---0-----------0--12-12-12-12---0-------12-------0----------- picking for

G---1--2^4-2^4--1--13-13-13-13---1--14^16--14^16--1--2^4-2^4-- this part)

D---2-----------2----------------2----------------2-----------

A---2-----------2----------------2----------------2-----------

E---0-----------0----------------0----------------0-----------

CHORUS

A5 D5 A5 D5 A5 D5 D5 A5 (repeat twice times)

WHITE RIOT I WANNA.....

VERSE

E-----------------------------------------------------------

B-----------------------------------------------------------

G-----------------------------------------------------------

A--7-7-7-7-7-7---10-9-7-5-5---7-7-7-7-7-7---10-9-7-5-5-5-5--

D--7-7-7-7-7-7----------------7-7-7-7-7-7-------------------

E--5-5-5-5-5-5----------------5-5-5-5-5-5-------------------

Amaj C5 Amaj A5 D5 A5

EVERY BODY...

(repeat chorus here)

(then verse)

Guitar Solo

E------5-----5-----5-------5-5-5---10----10---------------5-----5-----5------

B------5-----5-----5-------5-5-5------10------------------5-----5-----5------

G--7^9---7^9---7^9---7^9---6-6-6------------12^14-----7^9---7^9---7^9---7^9--

A----------------------------------------------------------------------------

D----------------------------------------------------------------------------

E----------------------------------------------------------------------------

E----------------------------------------------------------------------------

B--5^7-------5---------------------------------------------------------------

G-------2s6----6-------------------------------------------------------------

A-----7----------7-----------------------------------------------------------

D----------------------------------------------------------------------------

E----------------------------------------------------------------------------

(repeat the intro as usual)

(then the verse)

That should be write, but i'm sure you punks don't really care much !!!!!!!!!!!!!!!!!!!!

It's a basic song ! A close friend taught me this so if it ain't write i'll blame his ass for it !!! So just make a racket and hope for the best.

And for "The Clash" fans out there, hopefully you will at least make this sound awsome.

as they are an awsome and you guys wouldn't wanna make them sound rubbish. Rock 'n' Roll

Oh, and the order of the song is: Intro, Chorus, Verse, Chorus, Verse, Solo, Intro,

Chorus,

Get this song at:  amazon.com sheetmusicplus.com

Share your thoughts

0 Comments found