The Clash

The Clash - White Man In Hammersmith Palias bass tab

The Clash - (White Man) In Hammersmith Palais

Intro

=====

G-|-------------------|------------------|-----------------|-----------------|

D-|-------------------|------------------|-----------------|-----------------|

A-|-------------------|-7-7-7-7-7--------|-----------------|-----------------|

E-|-5-5-5-5-----------|------------------|-3-3---3-0-3-0-3-|-5-----5-3-5-3-5-|

G-|-------------------|------------------|

D-|-------------------|------------------|

A-|-------------------|------------------|

E-|-3-----3-0-3-0-3---|-5----------------|

Verses 1, 2 and 3

=================

G-||------------------|------------------|-----------------|------------------|

D-||*-----------------|------------------|-----------------|------------------|

A-||*--------R---7-R--|-4-444---5-4------|---------R---7-R-|-4-444---5-4------|

E-||-5-555------------|-------------7-6--|-5-555-----------|-------------7-6--|

[x2]

G-|------------------|------------------|-----------------|------------------||

D-|------------------|-4-444------------|-----------------|-----------------*||

A-|---------R--------|---------5-4------|---------R---7-R-|---------R-------*||

E-|-5-555------------|-------------7-6--|-5-555-----------|-5-555------------||

Bridge (after Verse 1)

======================

G-|-------------------|------------------|-----------------|-----------------|

D-|-------------------|------------------|-----------------|-----------------|

A-|-------------------|-7-7-7-7-7--------|-----------------|-----------------|

E-|-5-5-5-5-----------|------------------|-3-3---3-0-3-0-3-|-5-----5-3-5-3-5-|

G-|-----------------|-----------------|-------------------|------------------|

D-|-----------------|-----------------|-------------------|------------------|

A-|-----------------|-----------------|-------------------|-R----------------|

E-|-3-3---3-0-3-0-3-|-5-----5-3-5-3-5-|-3-----------------|------------------|

[x4]

G-||-------------------||

D-||*-----------------*||

A-||*--------R---7-R--*||

E-||-55555-------------||

Harmonica solo (after Verse 2)

==============================

G-|-------------------|------------------|-----------------|------------------|

D-|-------------------|------------------|-----------------|------------------|

A-|----------R---7-R--|---------R---5-R--|---------R---7-R-|---------R---5-R--|

E-|--5-555------------|-5-555------------|-5-555-----------|-5-555------------|

G-|------------------|------------------|-----------------|-------------------|

D-|------------------|-4-444------------|-----------------|-------------------|

A-|---------R--------|---------5-4------|---------R---7-R-|-------------------|

E-|-5-555------------|-------------7-6--|-5-555-----------|-5-555-------------|

Verse 4 and Outro

=================

G-|-------------------|------------------|-----------------|------------------|

D-|-------------------|------------------|-----------------|------------------|

A-|----------7-7-7----|-4-4-4---5-4------|---------7-7-7---|-4-4-4---5-4------|

E-|--5-5-5------------|-------------7-6--|-5-5-5-----------|-------------7-6--|

G-|-------------------|------------------|-----------------|------------------|

D-|-------------------|-4-4-4------------|-----------------|------------------|

A-|----------7-7-7----|---------5-5-5----|---------7-7-7---|------------------|

E-|--5-5-5------------|------------------|-5-5-5-----------|-5-5-5-5-5-5-5-5--|

G-|-------------------|------------------|-----------------|------------------|

D-|-------------------|------------------|-----------------|------------------|

A-|----------7-7-7----|-4-4-4---5-4------|---------7-7-7---|-4-4-4---5-4------|

E-|--5-5-5------------|-------------7-6--|-5-5-5-----------|-------------7-6--|

[x6]

G-|-------------------|-----------------||-----------------|-----------------||

D-|-------------------|-4-4-4-----------||*----------------|----------------*||

A-|----------7-7-7----|---------5-5-5---||*----------7-R---|------------5-R-*||

E-|--5-5-5------------|-----------------||-5-555-----------|-5-555-----------||

G-|-------------------|------------------|

D-|-------------------|------------------|

A-|--------------7-R--|-------------R----|

E-|-55555-------------|-55555------------|

i wont say how to play each not, its pretty easy to pick up by listening to the record.

any comments or enquiries e-mail: out_of_36@hotmail.com

Taken from The BassMasta -- http://www.tabs-database.com

Get this song at:  amazon.com sheetmusicplus.com

Share your thoughts

0 Comments found