The Clash

The Clash - White Man In Hammersmith Palais Live guitar tab

Artist-The Clash

Song-(white man)in hammersmith palias

guitarists-Mick Jones,Joe Strummer'

Album- The Clash

Tabbed by-Smellslikefeet1

this is one of the best clash songs ever writen!!! i hope its right

Intro

the -- space between the cords means wait a count

|----------|----------|----------|----------|----------|----------|

|----------|----------|----------|----------|----------|----------|

|----------|-9-9-9--9-|----------|----------|----------|----------|

|-7-7-7--7-|-9-9-9--9-|-5-5-5--5-|-7-7-7--7-|-5-5-5--5-|-7-7-7--7-|

|-7-7-7--7-|-7-7-7--7-|-5-5-5--5-|-7-7-7--7-|-5-5-5--5-|-7-7-7--7-|

|-5-5-5--5-|----------|-3-3-3--3-|-5-5-5--5-|-3-3-3--3-|-5-5-5--5-|

midnight to six man...

verse

|-------|-------|-------|-------||

|-------|-------|-------|-------||

|-------|--9--9-|--6--6-|--7--7-||x2

|--7--7-|--9--9-|--6--6-|--7--7-||

|--7--7-|--7--7-|--4--4-|--5--5-||

|--5--5-|-------|-------|-------||

|-------|-------|--------|-------|

|-------|-------|--------|-------|

|-------|--9--9-|--11-11-|--7--7-|

|--7--7-|--9--9-|--11-11-|--7--7-|

|--7--7-|--7--7-|--9--9--|--5--5-|

|--5--5-|-------|--------|-------|

|-------|-------|-------|-------||

|-------|-------|-------|-------||

|-------|--9--9-|--6--6-|--7--7-||

|--7--7-|--9--9-|--6--6-|--7--7-||

|--7--7-|--7--7-|--4--4-|--5--5-||

|--5--5-|-------|-------|-------||

PLAY THIS WHOLE FIRST PART TWICE THROGH THE VERSE^^^^^^^^^^^^^^^^^^^^^

on stage they aint got no roots rock rebal

|----------|----------|----------|----------|----------|----------|----|

|----------|----------|----------|----------|----------|----------|----|

|----------|-9-9-9--9-|----------|----------|----------|----------|----|

|-7-7-7--7-|-9-9-9--9-|-5-5-5--5-|-7-7-7--7-|-5-5-5--5-|-7-7-7--7-|5-5-|

|-7-7-7--7-|-7-7-7--7-|-5-5-5--5-|-7-7-7--7-|-5-5-5--5-|-7-7-7--7-|5-5-|

|-5-5-5--5-|----------|-3-3-3--3-|-5-5-5--5-|-3-3-3--3-|-5-5-5--5-|3-3-|

play once

onstage they aint got no

rroots rock rebal

|-----------------|--------------|

|-----------------|--------------|

|-------------9---|--------------|

|-7-7-7-7--7--9-x3|-7-7-7-7--7---|

|-7-7-7-7--7--7---|-7-7-7-7--7---|

|-5-5-5-5--5------|-5-5-5-5--5---|

play verse again

why not call up robin hood and ask him for som wealth distrubution

solo

|-----------------------------------5--5-5-----------|

|----------------------------------------------------|

|------------------------------------------9-7-------|

|----------------------------------------------------|

|-7-5-4---7-5-4-9--7-5-4-5-4--4-5-7-----------7-5-4--|

|-------5-------------------------------------------5|

verse

play begining again 4x

and then the song ends like this

|-----------------|--------------|

|-----------------|--------------|

|-------------9---|--------------|

|-7-7-7-7--7--9---|-7-7-7-7--7---|

|-7-7-7-7--7--7---|-7-7-7-7--7---|

|-5-5-5-5--5------|-5-5-5-5--5---|

thats it

i think its right and i hope the solo is but if it aint its kool neways

l8r

Get this song at:  amazon.com sheetmusicplus.com

Share your thoughts

0 Comments found