The Clash

The Clash - Whit Riot guitar tab

The Clash - White Riot

muisic/lyrics by strummer and jones

_______________

|~ = Hold |

|/ = Slide Up |

|\\ = Slide Down |

|b = Bend |

|x = Mute |

|h = Harmonic |

----------------

Intro

e |-----0----0---2--2-----2-----0--|-----0----0---2--2-----2-----0--|

B |-----2----2---3--3-----3-----2--|-----2----2---3--3-----3-----2--|

G |-----2----2---2--2-----2-----2--|-----2----2---2--2-----2-----2--|

D |-----2----2---0--0-----0-----2--|-----2----2---0--0-----0-----2--|

A |-----0----0------------------0--|-----0----0------------------0--|

E |--------------------------------|--------------------------------|

e |-----0----0---2--2-----2-----2--|-----2----2---0--0-------0------|

B |-----2----2---3--3-----3-----3--|-----3----3---2--2---0---2------|

G |-----2----2---2--2-----2-----2--|-----2----2---2--2---0---2------|

D |-----2----2---0--0-----0-----0--|-----0----0---2--2---0---2------|

A |-----0----0---------------------|--------------0--0---0---0------|

E |--------------------------------|--------------------------------|

This means a bend up to the 4th

e |--------------------------------|--------------------------------|

B |-------------------------------B|U-------------------------------|

G |--1~-----------------------2----|----4---------4---------2-------|

D |--2~----------------------------|--------------------------------|

A |--2~----------------------------|--------------------------------|

E |--0~----------------------------|--------------------------------|

e |--------------------------------|--12---12--12--12--12-----0-----|

B |-0------------------------------|--10---12--12--12--12-----0-----|

G |-1-------------------2////14----|-------13--13--13--13-----0-----|

D |-0------------------------------|----------------0---0-----0-----|

A |--------------------------------|--------------------------------|

E |--------------------------------|--------------------------------|

e |--0-----------------------------|--------------------------------|

B |--0---0-------------------------|-----------12--12----------0----|

G |--1---0---------------1////14---|-14b16--14b16--16---14b16--0--1-|

D |--2---0-------------------------|---------------------------0--2-|

A |--2---0-------------------------|---------------------------0--2-|

E |--0-----------------------------|---------------------------0--0-|

e |--------------------------------|--------------------------------|

B |--------0-----------------------|-----------------------x--------|

G |--------0--------------12-------|---14--------14/-------x--------|

D |--------0--------------12-------|---14--------14/-------x--------|

A |--------0--------------12-------|----0---------------------------|

E |--------------------------------|--------------------------------|

Solo:

e |--------5--5---5---------5------|-----5---------5-----5----------|

B |-----------5--------------------|-----5------5--5-----5----------|

G |---7b9-----9--------7-----------|-----6----7b9-----------7-----0-|

D |--------------------------------|--------------------------------|

A |--------------------------------|--------------------------------|

E |--------------------------------|--------------------------------|

e |----5------5------5-------5-----|-----------10-------------------|

B |----5------5------7-------5-----|-------10-------10----13b15-----|

G |----6------6------7-------6-----|-/11----------------------------|

D |--------------------------------|--------------------------------|

A |--------------------------------|--------------------------------|

E |--------------------------------|--------------------------------|

e |--------------------------------|---5---------5---5---5----------|

B |----5------5----------------5---|---5---------5---5---5----h5----|

G |------7b8--0---7b8---7b8--------|-------7b9-------0---0----h5----|

D |--------------------------------|--------------------------------|

A |--------------------------------|--------------------------------|

E |--------------------------------|--------------------------------|

e |--------------------------------|--------------------------------|

B |--------------------------------|-----5------5\\\\\\\\\\--------------|

G |--------------------------4/////|//6-----6---6\\\\\\\\\\--------------|

D |--------------7-----------------|------------7\\\\\\\\\\--------------|

A |--------------------------------|--------------------------------|

E |--------------------------------|--------------------------------|

Get this song at:  amazon.com sheetmusicplus.com

Share your thoughts

0 Comments found