The Clash

The Clash - Whats My Name guitar tab

All comments are welcome

The chords used are :

A E C

e|--5------x------x-----------------------

B| -5-----9-------5-----------

G| -6-----9-------5-------------

D| -7-----9-------5-----------

A| -7-----7-------3----------------

E| -5-----x-------x-------------------

Intro: A E C

Guitar 1:

e|-----------------------------------------------------------------------------

B| ----------------------------------------------------------------------------

G| ----------------------------------------------------------------------------

D| -----7----5----4---5---7----5-----4----5------2------9--9--9--9--9>5

A| ----------------------------------------------------------------------------

E| ----------------------------------------------------------------------------

Verse:

A

What the hell is wrong with me ?

E C

I'm not who I want to be

Chorus:

EF#GA

What's my naaaaaaaaaame ………

Get this song at:  amazon.com sheetmusicplus.com

Share your thoughts

0 Comments found