The Clash

The Clash - Users guitar tab

Intro:

|-----------------------|

|-----------------5-----|

|-------------4---------|

|-0-3-4-----5-----------|

|---------5-------------|

|-----------------------|

|-----------------------|

|-----------------------|

|-----------------------|

|--------------------8-0|

|-7-8-7-6-0----7-8-7----|

|-----------------------|

This is a song that i heard them recording one time. i know what studio

their in and everything. i was listening and heard them talking and playing

this song a little bit and it sounded really good. i dont know what the words

are but i bet their really good! this song should come out on their next cd!!!

Get this song at:  amazon.com sheetmusicplus.com

Share your thoughts

0 Comments found