The Clash

The Clash - Train In Vain guitar tab

Song: Train In Vain

Band: The Clash

Album: London Calling

Ive Also Posted The 100% Correct bass tab for this song aswell, So check that out.

Standard Tuning

*= Let Ring

Intro

e---------------------------

B---------------------------

G---------------------------

D----7----7-----7----7------

A---------------------------

E--5--5-5--5---5--5-5--5----

Verse

e-----------------------

B-----------------------

G--------7-------7------

D--------7-7-7---7-7-7--

A--------5-7-7---5-7-7--

E----------5-5-----5-5--

"But Without All Of These Things I Cant Do"

e--------------

B--------------

G---7*-----4*--

D---7*-----4*--

A---5*-----2*--

E--------------

Chorus

e-----------------------------

B-----------------------------

G----7*-----------------7*----

D----7*----7*----9*-----7*----

A----5*----7*----9*-----5*----

E----------5*----7*-----------

"You Must Explain"

e----------------------

B----------------------

G-----------------4*---

D-----------7--4--4*---

A-----------7--4--2*---

E-----------5--2-------

Ending- Repeat Verse and Fade

Thats all you need to know. I know you hear some other little guitar parts, but this is

what Mick plays live.

Get this song at:  amazon.com sheetmusicplus.com

Share your thoughts

0 Comments found