The Clash

The Clash - This Is Readio Clash bass tab

Standered Tuning, E A D G, nothing special !!! DONT FORGET TO RATE TABS !!!

Intro:

G|-----------------|----------------|-----------|

D|*----------------|---------------*|*---------*|

A|*--------2---7---|-3~------------*|*2-2------*|

E|-0---3-----------|----------------|-----5-3-2-|

G|-----------------|----------------|

D|*----------------|---------------*|

A|*----------------|-7-7-5--5--7-7-*|

E|-0---0---0---0---|----------------|

G|-----------------|----------------|

D|*----------------|---------------*|

A|*--------2---7---|-7-7-5--5--7-7-*|

E|-0---3-----------|----------------|

G|-----------------|----------------|

D|*----------------|---------------*|

A|*--------2---7---|-7-7-5--5--7-7-*|

E|-0---3-----------|----------------|

G|-----------------|----------------|----------|

D|*----------------|-5-------------*|*-5p7~---*|

A|*--------2---7---|---7-5--5--7-7-*|*---------|

E|-0---3-----------|----------------|----------|

Verses and Chorus': play for however many times, practically through the whole song

G|-----------------|----------------|

D|*----------------|---------------*|

A|*--------2---7---|-7-7-5--5--7-7-*|

E|-0---3-----------|----------------|

Slap Part: (comes in at 2:10 mins)

T P T T T P T T T P T T T P

G|-------9---------|-9---------|-9---------|-9--------|

D|*-9p11---11-9-11-|---11-9-11-|---11-9-11-|---------*|

A|*----------------|-----------|-----------|---------*|

E|-----------------|-----------|-----------|----------| x4

G|-----|-----------------|----------------|

D|*---*|*----------------|---------------*|

A|*---*|*--------2---7---|-7-7-5--5--7-7-*|

E|-17-|-0---3-----------|----------------|

continue playing this for a while until outro

G|-----------------|----------------|

D|*----------------|---------------*|

A|*--------2---7---|-7-7-5--5--7-7-*|

E|-0---3-----------|----------------|

Outro: (comes in at 3:13 mins) play through to end

G|-----------------|----------------|

D|*----------------|---------------*|

A|*--------2---7---|-2-2-2--0------*|

E|-0---3-----------|-----------3-0--|

Brought to you by the BassMasta - http://www.tabs-database.com

Get this song at:  amazon.com sheetmusicplus.com

Share your thoughts

0 Comments found