The Clash

The Clash - This Is Radio Clash guitar tab

The Clash - This is Radio Clash

By Peter

Radicalhooligan@aol.com

*NOTE Clean (no distortion)

~ = let ring

/ = slide

Intro: dont know if its correct,

but it sonds ok to me

e------------------------

b------------------------

g---4--5--6--7--9~-------

d---4--5--6--7--9~-------

a---2--3--4--5--7~-------

e------------------------

Pre-Verse

3x

e-------------------- --------------------------

b-------------------- --------------------------

g-------------------- --------------------------

d---5-5-5-4--7-7----- ---11-11-11-9--14-14------

a-------------------- --------------------------

e-------------------- --------------------------

slight pm............

Verse:

4x

e----3---3---3---3-------

b----5---5---5---5-------

g------------------------

d------------------------

a------------------------

e------------------------

Solo:

3x

e---3--3--3/5--3--3/5--3-3------ 3--3--4--5--6-6/5-5-5---7-7-7---

b---5--5--5/7--5--5/7--5-5------ 5--5--6--7--4-4/7-7-7---9-9-9---

g------------------------------- --------------------------------

d------------------------------- --------------------------------

a------------------------------- --------------------------------

e------------------------------- --------------------------------

Get this song at:  amazon.com sheetmusicplus.com

Share your thoughts

0 Comments found