The Clash

The Clash - The Guns Of Brixton bass tab

A PAUL SIMONON CLASSIC, BEST CLASH BASS LINE EVER!!!!!!!!!

100% PERFECTO, ENJOY :p

Main riff

G|-----------|---------------------------------------------------------|

D|-----------|--4---4---4--------------------4---4---4-----------------|

A|----2---5--|-------------5---2---2--2---5-------------5---2--2--2----|

E|-----------|---------------------------------------------------------|

G|------------------------------------------------------|

D|----5-5-5-5--------------------5-5-5-5----------------|

A|--5-----------5---2--2--2---5----------5---2--2---2---|

E|------------------------------------------------------|

VARIATION RIFF

G|-----------|-------------2--4---------------------2---4----------|

D|-----------|--4---4---4----------------4---4---4-----------------|

A|----2---5--|--------------------2---5---------------------2--5---|

E|-----------|-----------------------------------------------------|

G|------------------------------------------------------|

D|----5-5-5-5--------------------5-5-5-5----------------|

A|-------------5---2--2--2---5-----------5---2--2---2---|

E|------------------------------------------------------|

Get this song at:  amazon.com sheetmusicplus.com

Share your thoughts

0 Comments found