The Clash

The Clash - The Crooked Beat bass tab

G ------------------

D ------------------

A ------2-5-7-5757--

E --3-3-------------

G --------------------

D ----2-5-7-5757------

A --3-3---------------

E --------------------

Bridge -

G --------------------

D --------------------

A --55----------------

E ----5-7-5757--------

and thats all there is to it! have fun!

Corkster@email.com

^ email for comments or Q's ^

Taken from The BassMasta -- http://www.tabs-database.com

Get this song at:  amazon.com sheetmusicplus.com

Share your thoughts

0 Comments found