The Clash

The Clash - The Card Cheat bass tab

Band: The Clash

Title of Song: The Card Cheat

Album: London Calling

Written by Mick Jones & Joe Strummer

Very easy song,the same line repeated over and

over again.

Intro w/piano 2x

G| -----------------------------------------------

D| -----------------------------------------------

A| ---3--3--3-3--5---3----------------------------

E| -----------------------------------------------

g| -----------------------------------------------

d| --3--3-3---3--3-3-2--0-------------------------

a| --------------------------3--3-3---3--3-2--0---

e| -----------------------------------------------

g| -----------------------------------------------

d| ---------------3-2--0-0------------------------

a| -----------------------------------------------

e| --3--3-3--3-3----------------------------------

Repeat until extremely bored or the end of song.

I learned this by ear in like two minutes,

so its not very involved.The notes are correct,

but listen to the song for rhythms.

Peace.

Harringuitar@aol.com 7/02

Get this song at:  amazon.com sheetmusicplus.com

Share your thoughts

0 Comments found