The Clash

The Clash - Stay Free Solo guitar tab

tabbed by Christopher Queen b -bend p -pull off *-hold note

28/04/04 h- hammer on / -slide

e|---------------------7--8--7---------------------------10p8h10--/--12--10--|

B|------------13--12------------10--8------------13--12----------------------|

G|---7--/--9----------------------------7--/--9------------------------------|

D|---------------------------------------------------------------------------|

A|---------------------------------------------------------------------------|

E|---------------------------------------------------------------------------|

e|---7---7---7----7h8b-p7---7--7--7---7h8b-p7--/--10--12--12--10-----------------|

B|-----8---8---8--------------8--8--8----------------------------12--10--10--8---|

G|-------------------------------------------------------------------------------|

D|-------------------------------------------------------------------------------|

A|-------------------------------------------------------------------------------|

E|-------------------------------------------------------------------------------|

e|-------------15--------------------8-----------------------------------------|

B|--8--/--12-------12--------------8-----/--13-13--/--12-12--10-10--10h12-12---|

G|---------------------12------7h9---------------------------------------------|

D|-------------------------12*-------------------------------------------------|

A|-----------------------------------------------------------------------------|

E|-----------------------------------------------------------------------------|

e|--8---8----7--5--3----8---8---7--8--3---|

B|--8---8----7--5--3----8---8---7--8--3---|

G|--9---9----8--6--4----9---9---8--6--4---|

D|--10--10---9--7--5----10--10--9--7--5---|

A|--10--10---9--7--5----10--10--9--7--5---|

E|--8---8----7--5--3----8---8---7--5--3---|

Get this song at:  amazon.com sheetmusicplus.com

Share your thoughts

0 Comments found