The Clash

The Clash - Stay Free bass tab

Artist: The Clash

Song: Stay Free

~ - let ring

Intro

G-----------------------------------------------

D-----------------------------------------------

A-----------------------------------------------

E-----3-3---3-3---3-3---3-3---3-3---3-3---3-3---

We met when we were at school...

G-------------------------------|---------------------------|

D-------------5---4---2-0-------|---------------------------|

A-----2-3-4-5---3---2-----0-2-0-|-0-2-0---2-------2-0-3-2-3-|

E---3---------------------------|-------3---3-2-0-----------|

`Cos years have passed and... Go easy...

G-------------1-2-4---------0-0-------------|-------------------|

D-----1-2-4-2-------3-2-0-------3-3-2-2-0-0-|-----5-7-5---------|

A---2---------------------3-----------------|-3/7-------7-5-----|

E-------------------------------------------|---------------7-5-|

Stay free...

G----------------------------|-----------------------------------

D-5-5-5-5-5-5-5-------0-2-0~-|---------5-------4-------2---------

A----------------------------|-------7-------5-------4-----------

E----------------------------|-3-8-8-----7-7-----5-5-------------

Get this song at:  amazon.com sheetmusicplus.com

Share your thoughts

0 Comments found