The Clash

The Clash - Should I Stay Or Should I Go Intro guitar tab

e[--2-2-2--3-3-3-3--2--2-2-2-]

B[--3-3-3--0-0-0-0--3--3-3-3-]

G[--2-2-2--0-0-0-0--2--2-2-2-]

D[---------0-0-0-0-----------]

A[---------2-2-2-2-----------]

E[---------3-3-3-3-----------]

x x x

e[--2-2-2--3-3-3-3--2--2-2-2---5h8-]

B[--3-3-3--0-0-0-0--3--3-3-3-------]

G[--2-2-2--0-0-0-0--2--2-2-2-------]

D[---------0-0-0-0-----------------]

A[---------2-2-2-2-----------------]

E[---------3-3-3-3-----------------]

e[--2-2-2--3-3-3-3--2--R-R-R-] x4

B[--3-3-3--0-0-0-0--3--R-R-R-]

G[--2-2-2--0-0-0-0--2--R-R-R-]

D[---------0-0-0-0-----R-R-R-]

A[---------2-2-2-2-----R-R-R-]

E[---------3-3-3-3-----R-R-R-]

e[--3-3-3--1-1-1-1--3--R-R-R-]

G[--0-0-0--2-2-2-2--0--R-R-R-]

D[--0-0-0--3-3-3-3--0--R-R-R-]

A[--2-2-2-----------2--R-R-R-]

E[--3-3-3-----------3--R-R-R-]

e[--2-2-2--3-3-3-3--2--R-R-R-]

B[--3-3-3--0-0-0-0--3--R-R-R-]

G[--2-2-2--0-0-0-0--2--R-R-R-]

D[---------0-0-0-0-----R-R-R-]

A[---------2-2-2-2-----R-R-R-]

E[---------3-3-3-3-----R-R-R-]

e[-0-0-0-0-0-0-0-0-]

B[-2-2-2-2-2-2-2-2-]

G[-2-2-2-2-2-2-2-2-]

D[-2-2-2-2-2-2-2-2-]

A[-----------------]

E[-----------------]

And the song basically just reapeats except for the chorus. Well, I hope you like the

tab =)

Get this song at:  amazon.com sheetmusicplus.com

Share your thoughts

0 Comments found