The Clash

The Clash - Rudie Can't Fail bass tab

Band: The Clash

Song: Rudie Can't Fail

Intro:

G|------------------------------------------------------------------------|

D|---------------------------------------4--------------------------------|

A|--0-----00-----0-----00-----00-------------4-7--4-7-------4-7--4-7------|

E|------------------------------------------5----5----3-5--5----5----2-2--|

Riff 1 "Rudie can't fail"

G|--------------------------|

D|------4------------4------|

A|---4-5---4-7-4--4-5-------|

E|--5-----5------5------55--|

Verse:

G|-------------------------------------------------|

D|---------------4---------------------------------|

A|----------45-7------4-7--4-7-------4-7--4-7------|

E|--5----5---------5-5----5-----3-5-5----5-----22--|

Riff 1

Verse

Riff 1

Riff 2 "I went to the market..."

G|-----------------x3|-----------|

D|-------------------|-----------|

A|------7---9--8/9---|--5--7-----|

E|--5----------------|--------5--|

Verse

Riff 1

Verse

Riff 1

Riff 2

Verse

Riff 1

Bridge:

G|-----------------------------------------------|

D|----------7-7----------7-7---------------------|

A|------7------------7--------9-9---9---9---7----|

E|--5------------5----------------------------5--|

"Rudie can't fail"

G|-----------------------------------------------------------------|

D|------------------------------------------------------------4-7--|

A|------7---9-8/9--5---7---9-8/9------7---9-8/9--5---7-----4-7-----|

E|--5-----------------------------5---------------------5----------|

Outro: "Rudie can't fail"

G|---------------------------|x8

D|---4-7----6-9---------4-7--|

A|--5-----7----------4-7-----|

E|---------------5-----------|

END

Lyrics:

Sing, Michael, sing-on the route of the 19 Bus

Hear them sayin'

How you get a rude and a reckless?

Don't you be so crude and a feckless

You been drinking brew for breakfast

Rudie can't fail

So we reply

I know that my life make you nervous

But I tell you that I can't live in service

Like the doctor who was born for a purpose***

Rudie can't fail

I WENT TO THE MARKET TO REALISE MY SOUL

'CAUSE WHAT I NEED I JUST DON'T HAVE

FIRST THEY CURSE, THEN THEY PRESS ME TILL I HURT

WE SAY RUDIE CAN'T FAIL

We hear them sayin'

Now first you must cure your temper

Then you find a job in the paper

You need someone for a saviour

Oh, Rudie can't fail

We reply

Now we get a rude and a reckless

We been seen lookin' cool an' a speckless

We been drinking brew for breakfast

So Rudie can't fail

Okay!

So where you wanna go today?

Hey boss man!

You're looking pretty smart

In your chicken skin suit

You think you're pretty hot

In your pork pie hat

But...Rudie can't fail

Look out, look out...

Sky juice!...10 cents a bottle!

Taken from The BassMasta -- http://www.tabs-database.com

Get this song at:  amazon.com sheetmusicplus.com

Share your thoughts

0 Comments found