The Clash

The Clash - Rudie Can Fail guitar tab

The Clash

Rudie Can’t Fail

>Standard Tuning

e|--55-5-5-5-5--5-5-55-55-5-5-5-5--3-5-55-55-5-5-5-5-22-22-2-2-|

B|--55-5-5-5-5--7-5-55-55-5-5-5-5--3-5-55-55-5-5-5-5-22-22-2-2-|

G|--66-6-6-6-6--7-6-66-66-6-6-6-6--4-6-66-66-6-6-6-6-22-22-2-2-|

D|--77-7-7-7-7--7-7-77-77-7-7-7-7--5-7-77-77-7-7-7-7-44-44-4-4-|

A|--77-7-7-7-7--5-7----77-7-7-7-7--5-7----77-7-7-7-7-44-44-4-4-|

E|-------------------------------------------------------------|

e|------------------------------5-5--|

B|------------------------------5-5--|

G|------------------------------6-6--|

D|--------4------2----------4---7-7--|

A|--0-4-5----0-4---4--0-4-5---0-7-7--|

E|-----------------------------------|

Repeat all that 4 times, then:

e|--5-5-5-5--7-7-7-7--9--9--9--9--9--9---5-5-5-5--7-7-7-7--9--9--|

B|--5-5-5-5--9-9-9-9--10-10-10-10-10-10--5-5-5-5--9-9-9-9--10-10-|

G|--6-6-6-6--9-9-9-9--11-11-11-11-11-11--6-6-6-6--9-9-9-9--11-11-|

D|--7-7-7-7--9-9-9-9--11-11-11-11-11-11--7-7-7-7--9-9-9-9--11-11-|

A|--7-7-7-7--7-7-7-7--9--9--9--9--9--9---7-7-7-7--7-7-7-7--9--9--|

E|---------------------------------------------------------------|

e|--9--9--9--9---5-5-5-5--7-7-7-7--9--9--9--9--9--9---5-5-5-5-|

B|--10-10-10-10--5-5-5-5--9-9-9-9--10-10-10-10-10-10--5-5-5-5-|

G|--11-11-11-11--6-6-6-6--9-9-9-9--11-11-11-11-11-11--6-6-6-6-|

D|--11-11-11-11--7-7-7-7--9-9-9-9--11-11-11-11-11-11--7-7-7-7-|

A|--9--9--9--9---7-7-7-7--7-7-7-7--9--9--9--9--9--9---7-7-7-7-|

E|------------------------------------------------------------|

e|--5-5-5-5--7-7-7-7--55-5-|

B|--5-5-5-5--9-9-9-9--55-5-|

G|--6-6-6-6--9-9-9-9--66-6-|

D|--7-7-7-7--9-9-9-9--77-7-|

A|--7-7-7-7--7-7-7-7--77-7-|

E|-------------------------|

im sure u can figure out the order from there, then play the ending with is the same rif

over and over:

e|--5-5-5-5--7-7-7-7--9--9--9--9--9--9---|

B|--5-5-5-5--9-9-9-9--10-10-10-10-10-10--|

G|--6-6-6-6--9-9-9-9--11-11-11-11-11-11--|

D|--7-7-7-7--9-9-9-9--11-11-11-11-11-11--|

A|--7-7-7-7--7-7-7-7--9--9--9--9--9--9---|

E|---------------------------------------|

-----------

Get this song at:  amazon.com sheetmusicplus.com

Share your thoughts

0 Comments found