The Clash

The Clash - Rock The Casbah bass tab

The Clash

Rock The Casbah

Intro/Chorus/Outro

G-------------12-10-------------------------------------

D----12-10-12-------7-77--5-55--------------------------

A-----------------------------7-77--8-88--7-77-3-0-3-0--

E-10---------------------------------------------------Repeat

Verse

G----------------------------------------------------

D--7----7-----------------5----5----5----------------

A-------------7-----7-----------------5-5-5-3-5-5/7--

E----5-5--5-5---0-0--0-0----3-3--3-3-----------------Repeat

Right Before Chorus

G-----------------------

D-----------------------

A-----------------------

E--1--1----1---0h1-0h1-0- Into Chorus

"Now Over At The Temple"

G-------------------------------------------------------------

D--7----7------------3----3---------------------7----7---------

A--------------------------------------------------------------

E----5-5--5-5---(x4)---1-1--1-1------(x2)--3*-----5-5--5-5----(x2) Into Chorus

- Jake Calhoun 4/7/06

Get this song at:  amazon.com sheetmusicplus.com

Share your thoughts

0 Comments found