The Clash

The Clash - Revolution Rock guitar tab

Band: The Clash

Song: Revolution Rock

Intro/Verse:

e|--77--7--77--7--9-9--9--9-9--9--|

B|--77--7--77--7--9-9--9--9-9--9--|

G|--88--8--88--8--9-9--9--9-9--9--|

D|--99--9--99--9-1111-11-1111-11--|

A|--------------------------------|

E|--------------------------------|

B|-----------------7-6-5--|

G|------44--4-6-8---------|

D|--4/6----6--------------|

Chorus:

e|--77-7--9-9--9--9-9--9-77-7--|----------|

B|--77-7-1111-11--9-9--9-77-7--|--9-9--9--|

G|--88-8-1111-11--9-9--9-88-8--|--9-9--9--|

D|--99-9-1111-11-1111-11-99-9--|-11-9-11--|

A|-----------------------------|----------|

E|-----------------------------|----------|

END

Lyrics:

Revolution rock, it is a brand new rock

A bad, bad rock, this here revolution rock

Careful how you move, Mac, you dig me in me back

An' I'm so pilled up that I rattle

I have got the sharpeest knife, so I cut the biggest slice

But I have no time to do battle

Everybody smash up your seats and rock to this

Brand new beat

This here music mash up the nation

This here music cause a sensation

Tell your ma, tell your pa everything's gonna be all right

Can't you feel it? DOn't ignore it

Gonna be Arl-right

Revolution rock, I am in a state of shock

So bad, bad rock, this here revolution rock

Careful how you slide, Clyde, all you did was glide

And you poured your beer in me hat

With my good eye on the beat, living on fixation strete

And I ai't got no time for that

Get this song at:  amazon.com sheetmusicplus.com

Share your thoughts

0 Comments found